Hoax - Identity Chords & Tabs

 

Identity Chords & Tabs

Hoax Chords & Tabs

Version: 2 Type: Tab 0 ratings
1 star 2 stars 3 stars 4 stars 5 stars
comments

Identity Tab

Hoax- Identity (Solo)
From the Safety First album

From the last verse riff, go straight into:

e|--7--7--7--7--7--7--7--5--|--7--7--7--7--7--7--7--5--|
b|--------------------------|--------------------------|
g|--------------------------|--------------------------|
d|--------------------------|--------------------------|
a|--------------------------|--------------------------|
e|--------------------------|--------------------------|

e|--7--7--7--7--7--7--7--7--|--10--10--10--12--12--12--12--12--|
b|--------------------------|----------------------------------|
g|--------------------------|----------------------------------|
d|--------------------------|----------------------------------|
a|--------------------------|----------------------------------|
e|--------------------------|----------------------------------|
[ Tab from: http://www.guitartabs.cc/tabs/h/hoax/identity_tab_ver_2.html ]
e|--7--7--7--7--7--7--7--5--|--7--7--7--7--7--7--7--5--|
b|--------------------------|--------------------------|
g|--------------------------|--------------------------|
d|--------------------------|--------------------------|
a|--------------------------|--------------------------|
e|--------------------------|--------------------------|
                               Gradually slow down... 
e|--7--7--7--7--7--7--7--7--|--10--10--10--12--12--12--12--12--|
b|--------------------------|----------------------------------|
g|--------------------------|----------------------------------|
d|--------------------------|----------------------------------|
a|--------------------------|----------------------------------|
e|--------------------------|----------------------------------|

e|---^7^---|
b|---------|
g|---------|
d|---------|
a|---------|
e|---------|
Bend high B to finish
Comments