Hives - Walk Idiot Walk Chords & Tabs

 

Walk Idiot Walk Chords & Tabs

Hives Chords & Tabs

Version: 6 Type: Tab 0 ratings
1 star 2 stars 3 stars 4 stars 5 stars
comments

Walk Idiot Walk Tab

Hi im 14 years old and this is my first tab so be easy on me. i tabbed out the
complete song and i think its ver accurate. please tell me what you thik.


Intro
e|-----------------------------|
B|-9-9---7---14-14--12---14-15-|
G|-9-9---7---14-14--12---14-14-| x4
D|-9-9---7---14-14--12---14-14-|
A|-7-7---5---12-12--10---12-12-|
E|-----------------------------|

Verse
e|-0-0-0-0-0-0-0-0-0-0-0-0----------|
B|-3-3-3-2-2-2-2-1-1-1-1-0----------|
G|----------------------------------| x8
D|----------------------------2---2-|
A|----------------------------2---2-|
E|------------------------------3---|

Prechorus

e|---------------------------------|---------------------------|
B|-9-9---7---14-14--12---14-15-----|-9-9---7---14-14--12----15-|
G|-9-9---7---14-14--12---14-14-(x7)|-9-9---7---14-14--12----14-| 
D|-9-9---7---14-14--12---14-14-----|-9-9---7---14-14--12----14-|   
A|-7-7---5---12-12--10---12-12-----|-7-7---5---12-12--10----12-| 
E|---------------------------------|---------------------------|

Chorus

e|-------------------------------------------------------------------------|
B|-------------------------------------------------------------------------|
G|-------------------------------------------------------------------------|
D|-5-5-5-5-5-5-5-5--7-7-7-7-7-7-7-7--5-5-5-5-5-5-5-5--4b5rb4b5rb4b5rb4-2---|
A|-5-5-5-5-5-5-5-5--7-7-7-7-7-7-7-7--5-5-5-5-5-5-5-5-----------------------|
E|-3-3-3-3-3-3-3-3--5-5-5-5-5-5-5-5--3-3-3-3-3-3-3-3-----------------------|

Postchorus- repeat intro riff 5 times

verse- repeat verse riff 8 times


Prechorus
[ Tab from: http://www.guitartabs.cc/tabs/h/hives/walk_idiot_walk_tab_ver_6.html ]
e|---------------------------------|---------------------------|
B|-9-9---7---14-14--12---14-15-----|-9-9---7---14-14--12----15-|
G|-9-9---7---14-14--12---14-14-(x3)|-9-9---7---14-14--12----14-| 
D|-9-9---7---14-14--12---14-14-----|-9-9---7---14-14--12----14-|   
A|-7-7---5---12-12--10---12-12-----|-7-7---5---12-12--10----12-| 
E|---------------------------------|---------------------------|


Chorus

e|-------------------------------------------------------------------------|
B|-------------------------------------------------------------------------|
G|-------------------------------------------------------------------------|
D|-5-5-5-5-5-5-5-5--7-7-7-7-7-7-7-7--5-5-5-5-5-5-5-5--4b5rb4b5rb4b5rb4-2---|
A|-5-5-5-5-5-5-5-5--7-7-7-7-7-7-7-7--5-5-5-5-5-5-5-5-----------------------|
E|-3-3-3-3-3-3-3-3--5-5-5-5-5-5-5-5--3-3-3-3-3-3-3-3-----------------------|

e|--------------------------------------------------|
B|--------------------------------------------------|
G|--------------------------------------------------|
D|-4b5rb4b5rb4b5rb4-------4-5-4-5-4-5-4-5-4-5-4-5-4-|
A|--------------------------------------------------|
E|--------------------------------------------------|

post chorus- next repeat intro riff 4 times

no gutiar for the verse

Prechorus

e|---------------------------------|---------------------------|
B|-9-9---7---14-14--12---14-15-----|-9-9---7---14-14--12----15-|
G|-9-9---7---14-14--12---14-14-(x7)|-9-9---7---14-14--12----14-| 
D|-9-9---7---14-14--12---14-14-----|-9-9---7---14-14--12----14-|   
A|-7-7---5---12-12--10---12-12-----|-7-7---5---12-12--10----12-| 
E|---------------------------------|---------------------------|

Chorus

e|-------------------------------------------------------------------------|
B|-------------------------------------------------------------------------|
G|-------------------------------------------------------------------------|
D|-5-5-5-5-5-5-5-5--7-7-7-7-7-7-7-7--5-5-5-5-5-5-5-5--4b5rb4b5rb4b5rb4-2---|
A|-5-5-5-5-5-5-5-5--7-7-7-7-7-7-7-7--5-5-5-5-5-5-5-5-----------------------|
E|-3-3-3-3-3-3-3-3--5-5-5-5-5-5-5-5--3-3-3-3-3-3-3-3-----------------------|

outro- play intro riff once

                       ____
| /        |          |
|/         | ___      |_
|\   \  /  | |_       |
| \   \/   | |__      |  o
      /   
     /
Comments