Hives - Walk Idiot Walk Chords & Tabs

 

Walk Idiot Walk Chords & Tabs

Hives Chords & Tabs

Version: 5 Type: Tab 0 ratings
1 star 2 stars 3 stars 4 stars 5 stars
comments

Walk Idiot Walk Tab

         Intro
e--------------------------------------------------]
B------------------------------------14-14---------]
G--------------------14-14--12--12-12--------------]
D--------------------14-14--12---------------------]
A----14-14--12---12-12--10-------------------------]
E----12-12--10-------------------------------------]

         Verse

e---0-0-0--0-0-0-0--0-0-0--0-------------]
B---3-3-3--2-2-2-2--1-1-1--0-------------]
G----------------------------------------]
D----------------------------------------]
A----------------------------------------]
E----------------------------------------]

    Chorus
[ Tab from: http://www.guitartabs.cc/tabs/h/hives/walk_idiot_walk_tab_ver_5.html ]
e--------------------------------------------------------------------------------]
B--------------------------------------------------------------------------------]
G--------------------------------------------------------------------------------]
D---5-5-5-5-5-5-5-5--4-4-4-4-4-4-4-4--5-5-5-5-5-5-5-5----------------------------]
A---5-5-5-5-5-5-5-5--4-4-4-4-4-4-4-4--5-5-5-5-5-5-5-5---9b-----------------------]
E---3-3-3-3-3-3-3-3--2-2-2-2-2-2-2-2--3-3-3-3-3-3-3-3----------------------------]

                    On the chorus on the second time doing the time in the song, after 
the above do this:

e-----------------------------------------------]
B-----------------------------------------------]
G-----------------------------------------------]
D-----------5-4-5-4-5-4-5-4-5-4-5-4-------------]
A---9*-----5-4-5-4-5-4-5-4-5-4-5-4--------------]
E-----------3-2-3-2-3-2-3-2-3-2-3-2-------------]     And back into the intro/main riff.
Comments