Hives - Walk Idiot Walk Chords & Tabs

 

Walk Idiot Walk Chords & Tabs

Hives Chords & Tabs

Version: 3 Type: Tab 0 ratings
1 star 2 stars 3 stars 4 stars 5 stars
comments

Walk Idiot Walk Tab

This is such a kool Hives song, I can't wait for the new album!
Im 99% sure this tab is correct. As it hasnt been released yet I had to tab it from the video. Anyway enjoy!
The Hives
Walk Idiot Walk

Intro:
|-------------------------R
|-9-9--7---10-10-8---7-8--E
|-9-9--7---9--9--7---7-7--P
|-9-9--7---9--9--7---7-7--E
|-------------------------A
|-------------------------T TILL VERSE

Verse:
|--0-0-0-0-0-0-0-0-0-0-0--|
|--3-3-3-2-2-2-2-1-1-1-0--|
|-------------------------|
|-------------------------|
|-------------------------|
|-------------------------|

See the idiot walk...
|-------------------------R
|-9-9--7---10-10-8---7-8--E
|-9-9--7---9--9--7---7-7--P
|-9-9--7---9--9--7---7-7--E
|-------------------------A
|-------------------------T

Chorus:
 This is what i need...
|---------------------------------------------------------------|
|---------------------------------------------------------------|
|---------------------------------------------------------------|
|-5-5-5-5-5-5-5-5--4-4-4-4-4-4-4-4--5-5-5-5-5-5-5-5-------------|
|-5-5-5-5-5-5-5-5--4-4-4-4-4-4-4-4--5-5-5-5-5-5-5-5--4brbrbrbr--|
|-3-3-3-3-3-3-3-3--2-2-2-2-2-2-2-2--3-3-3-3-3-3-3-3-------------|

|-------------------------R
|-9-9--7---10-10-8---7-8--E
|-9-9--7---9--9--7---7-7--P
|-9-9--7---9--9--7---7-7--E
|-------------------------A
|-------------------------T 

Verse:
|--0-0-0-0-0-0-0-0-0-0-0--|
|--3-3-3-2-2-2-2-1-1-1-0--|
|-------------------------|
|-------------------------|
|-------------------------|
|-------------------------|
[ Tab from: http://www.guitartabs.cc/tabs/h/hives/walk_idiot_walk_tab_ver_3.html ]
|-------------------------R
|-9-9--7---10-10-8---7-8--E
|-9-9--7---9--9--7---7-7--P
|-9-9--7---9--9--7---7-7--E
|-------------------------A
|-------------------------T

Chorus:
 This is what i need...
|---------------------------------------------------------------|
|---------------------------------------------------------------|
|---------------------------------------------------------------|
|-5-5-5-5-5-5-5-5--4-4-4-4-4-4-4-4--5-5-5-5-5-5-5-5-------------|
|-5-5-5-5-5-5-5-5--4-4-4-4-4-4-4-4--5-5-5-5-5-5-5-5--4brbrbrbr--|
|-3-3-3-3-3-3-3-3--2-2-2-2-2-2-2-2--3-3-3-3-3-3-3-3-------------|

|-------------------------R
|-9-9--7---10-10-8---7-8--E
|-9-9--7---9--9--7---7-7--P
|-9-9--7---9--9--7---7-7--E
|-------------------------A
|-------------------------T

BASS!


|-------------------------R
|-9-9--7---10-10-8---7-8--E
|-9-9--7---9--9--7---7-7--P
|-9-9--7---9--9--7---7-7--E
|-------------------------A
|-------------------------T

Chorus:
 This is what i need...
|---------------------------------------------------------------|
|---------------------------------------------------------------|
|---------------------------------------------------------------|
|-5-5-5-5-5-5-5-5--4-4-4-4-4-4-4-4--5-5-5-5-5-5-5-5-------------|
|-5-5-5-5-5-5-5-5--4-4-4-4-4-4-4-4--5-5-5-5-5-5-5-5--4brbrbrbr--|
|-3-3-3-3-3-3-3-3--2-2-2-2-2-2-2-2--3-3-3-3-3-3-3-3-------------|

|-------------------------R
|-9-9--7---10-10-8---7-8--E
|-9-9--7---9--9--7---7-7--P
|-9-9--7---9--9--7---7-7--E
|-------------------------A
|-------------------------T

I think thats about it! But if you do have any problems e-mail
me at rhcp_3454@hotmail.com but im sure u wont, its fairly staright
forward! Plz rate this tab or leave any comments if you want to. Thanx!
{RoCk On!}
Comments