Hives - Walk Idiot Walk Chords & Tabs

 

Walk Idiot Walk Chords & Tabs

Hives Chords & Tabs

Version: 3 Type: Bass Tab 0 ratings
1 star 2 stars 3 stars 4 stars 5 stars
comments

Walk Idiot Walk Bass Tab

   
-------------------------------------------------------------------------------
			     WALK, IDIOT, WALK
-------------------------------------------------------------------------------

Tabbed By : Matt Burton
e-mail: the_dragoon88@hotmail.com

Tuning: Standard ((b) E A D G (c))

Verse

G|---------------------------------------------------------------------------|
D|*--------------------------------------------------------------------------*
A|*------------7-7-7-7-7-7-7-5-7-7-7-7------------7-7-7-7-7-7-7-5-7-7-7-7----*
E|---0-3-0-------------------------------0-3-0------------------------------|

Chorus(same as Verse)

Post Chorus

G|---------------------------------------------------------------------------|
D|----------------------------------------------5-5-5-5-5-5-5-5--------------|
A|---------------------------------------------------------------------------|
E|--------------------------------------0-3-3--------------------------------|

G|---------------------------------------------------------------------------|
D|---4-4-4-4-4-4-4-4-5-5-5-5-5-5-5-5-4---------------------------------------|
A|---------------------------------------------------------------------------|
E|---------------------------------------------------------------------------|
[ Tab from: http://www.guitartabs.cc/tabs/h/hives/walk_idiot_walk_btab_ver_3.html ]
Verse 2 (bracketed notes are optional, sounds good, play when it sounds correct)
G|----------------------------------------|----------------------------------|
D|----------------------------------------|*---------------------------------*
A|----------------7-7-7-7-7-7-7-5-7-7-7-7-|*-------7-7-7-7-7-7-7-5-7-7-7-7---*
E|---(0)-(3)-(0)--------------------------|-0-3-0----------------------------|

Post chorus 2

Post Chorus

G|---------------------------------------------------------------------------|
D|----------------------------------------------5-5-5-5-5-5-5-5--------------|
A|-------------7-7-7-7-7-7-7-5-7-7-7-7---------------------------------------|
E|---0-3-0------------------------------0-3-3--------------------------------|

G|---------------------------------------------------------------------------|
D|---4-4-4-4-4-4-4-4-5-5-5-5-5-5-5-5-4-------4------4----4-5-4-5-4-5---------|
A|---------------------------------------------------------------------------|
E|---------------------------------------------------------------------------|

G|---------------------------------------------------------------------------|
D|---------------------------------------------------------------------------|
A|-------------7-7-7-7-7-7-7-5-7-7-7-7---------------------------------------|
E|---------------------------------------------------------------------------|

Heres the timing, you wont even need this, but here it is for good measure.

Verse (x6)
Chorus (x4)
Post Chorus (x1)
Verse (x6)
Chorus (x2)
Post chorus 2 (x1)
Verse (x4)
Chorus (x4)
Post chorus (x1)

El Fin

And thats about it. I see this a great song for one to experiment with, I've written
plenty of licks to replace certain parts of the song, so yeh, give improv a shot guys.

Have fun.
Comments