Hives - Walk Idiot Walk Chords & Tabs

 

Walk Idiot Walk Chords & Tabs

Hives Chords & Tabs

Version: 2 Type: Bass Tab 0 ratings
1 star 2 stars 3 stars 4 stars 5 stars
comments

Walk Idiot Walk Bass Tab

Tabbed by tiftcte

G|------------|
D|------------|
A|------------|
E|--0-3-0-----|

riff
G|------------------------------------|
D|------------------------------------|
A|--7-7-7-7-7-7-7-5-7-7-7-7-----------|
E|--------------------------0-3-0-----|
[ Tab from: http://www.guitartabs.cc/tabs/h/hives/walk_idiot_walk_btab_ver_2.html ]
Chorus 1
G|--------------------------------------------------------------------|
D|--5-5-5-5-5-5-5-5-4-4-4-4-4-4-4-4-5-5-5-5-5-5-5-5-4-----------------|
A|--------------------------------------------------------------------|
E|--------------------------------------------------------------------|

Chorus 2
G|--------------------------------------------------------------------|
D|--5-5-5-5-5-5-5-5-4-4-4-4-4-4-4-4-5-5-5-5-5-5-5-5-4-----------------|
A|--------------------------------------------------------------------|
E|--------------------------------------------------------------------|

G|------------------------------------------------|
D|--4---------------4---------------4-5-4-5-4-5---|
A|------------------------------------------------|
E|------------------------------------------------|
Comments