Hives - Two-timing Touch And Broken Bones Chords & Tabs

 

Two-timing Touch And Broken Bones Chords & Tabs

Hives Chords & Tabs

Version: 4 Type: Tab 0 ratings
1 star 2 stars 3 stars 4 stars 5 stars
comments

Two-timing Touch And Broken Bones Tab

Artist: The Hives
Song: Two-Timing Touch And Broken Bones
Album: Tyrannosaurus Hives

Submitted By: Devlin Morton devlin_morton@hotmail.com

Intro/Verse

 For this song, there's two guitars. Guitar 1 is clean and Guitar 2 is in the background 
a bit of distortion. Guitar 1 is the tab on top and Guitar 2 is on the below. The lines 
nothing to do with the beat or rhythem, but you can use them to line up the two guitar parts more easily.

e)-----0-----|-3-----|-5-----|-8--------|
b)-----0-----|-3-----|-5-----|-8--------|
g)-----1-----|-4-----|-6-----|-9--------|	Guitar 1
d)-----2-----|-5-----|-7-----|-10-------|
a)-----2-----|-5-----|-7-----|-10-------|
E)-----0-----|-3-----|-5-----|-8--------|

e)-------0-0-|---3-3-|---5-5-|----8--8--|
b)-------0-0-|---3-3-|---5-5-|----8--8--|
g)-------1-1-|---4-4-|---6-6-|----9--9--|	Guitar 2
d)-------2-2-|---5-5-|---7-7-|----10-10-|
a)-------2-2-|---5-5-|---7-7-|----10-10-|
E)-------0-0-|---3-3-|---5-5-|----8--8--|

e)-----0-0-0-0-|-3-3-3-3-|-5---5-5-|--8-----8--8--|
b)-----0-0-0-0-|-3-3-3-3-|-5---5-5-|--8-----8--8--|
g)-----1-1-1-1-|-4-4-4-4-|-6---6-6-|--9-----9--9--|	Guitar 1
d)-----2-2-2-2-|-5-5-5-5-|-7---7-7-|--10----10-10-|
a)-----2-2-2-2-|-5-5-5-5-|-7---7-7-|--10----10-10-|
E)-----0-0-0-0-|-3-3-3-3-|-5---5-5-|--8-----8--8--|

e)---------0-0-|-----3-3-|-----5-5-|--------8--8--|
b)---------0-0-|-----3-3-|-----5-5-|--------8--8--|
g)---------1-1-|-----4-4-|-----6-6-|--------9--9--|	Guitar 2
d)---------2-2-|-----5-5-|-----7-7-|--------10-10-|
a)---------2-2-|-----5-5-|-----7-7-|--------10-10-|
E)---------0-0-|-----3-3-|-----5-5-|--------8--8--|
[ Tab from: http://www.guitartabs.cc/tabs/h/hives/two_timing_touch_and_broken_bones_tab_ver_4.html ]
Intro Part 2
e)-----------------------------------------|
b)-----------------------------------------|
g)-----4-4-4-4-4-4-4-4-4-4-4-4-4-4-4-4-----|	Guitar 2
d)-----4-4-4-4-4-4-4-4-4-4-4-4-4-4-4-4-----|
a)-----2-2-2-2-2-2-2-2-2-2-2-2-2-2-2-2-----|
E)-----------------------------------------|

e)-----------------------------------------|
b)-----------------------------------------|
g)-----4-4-4-4-4-4-4-4-4-4-4-4-4-4-4-4-----|	Guitar 1 and 2
d)-----4-4-4-4-4-4-4-4-4-4-4-4-4-4-4-4-----|
a)-----2-2-2-2-2-2-2-2-2-2-2-2-2-2-2-2-----|
E)-----------------------------------------|


Pre-Chorus                        Guitar 1
e)-------------------------------------|----------------------------------|
b)-------------------------------------|----------------------------------|
g)-----4-4-4-4-4-4-4-4-4-4-4-4-4-4-4-4-|-7-7-7-7-7-7-7-7-9-9-9-9-9-9-9-9--|
d)-----4-4-4-4-4-4-4-4-4-4-4-4-4-4-4-4-|-7-7-7-7-7-7-7-7-9-9-9-9-9-9-9-9--|
a)-----2-2-2-2-2-2-2-2-2-2-2-2-2-2-2-2-|-5-5-5-5-5-5-5-5-7-7-7-7-7-7-7-7--|
E)-------------------------------------|----------------------------------|

                                  Guitar 2
e)-------------------------------------|----------------------------------|
b)-------------------------------------|----------------------------------|
g)-------------------------------------|-7-7-7-7-7-7-7-7-9-9-9-9-9-9-9-9--|
d)-------------------------------------|-7-7-7-7-7-7-7-7-9-9-9-9-9-9-9-9--|
a)-------------------------------------|-5-5-5-5-5-5-5-5-7-7-7-7-7-7-7-7--|
E)-------------------------------------|----------------------------------|

Chorus
e)-----------------------------------------|
b)-----------------------------------------|
g)-------------------7-7-7-7-7-7-7---------|	Guitar 1 and 2
d)-----9-9-9-9-9-7-7-7-7-7-7-7-7-7-9-9-----|
a)-----9-9-9-9-9-7-7-5-5-5-5-5-5-5-9-9-----|
E)-----7-7-7-7-7-5-5---------------7-7-----|
Make sure that you only play the B only five times


Order

Intro/Verse X2
Intro Part 2 X1
Intro/Verse X4
Pre-Chorus X1
Chorus X4
Intro/Verse X4
Pre-Chorus X1
Chorus X4
Chorus with two distortion guitars X4
End On B
Comments