Hives - Two-timing Touch And Broken Bones Chords & Tabs

 

Two-timing Touch And Broken Bones Chords & Tabs

Hives Chords & Tabs

Version: 1 Type: Tab 0 ratings
1 star 2 stars 3 stars 4 stars 5 stars
comments

Two-timing Touch And Broken Bones Tab

THE HIVES
TWO-TIMING TOUCH AND BROKEN BONES
TYRANNASAURUS HIVES
TABBED BY nafone66

INTRO/MAIN RIFF

Guitar 1

e--0---3---5---9----|         |--8-------8-------8---8---8-------|
B--0---3---5---9----|         |--8-------8-------8---8---8-------|
G--1---4---6---10---| X3 THEN |--9-------9-------9---9---9-------|
D-------------------|         |----------------------------------|
A-------------------|         |----------------------------------|
E-------------------|         |----------------------------------|

Guitar 2
[ Tab from: http://www.guitartabs.cc/tabs/h/hives/two_timing_touch_and_broken_bones_tab.html ]
e-------------------|         |----------------------------------|
B-------------------|         |----------------------------------|
G------------2---5--| X3 THEN |----------------------------------|
D----2---5---2---5--|         |--4-4-4-4-4-4-4-4-4-4-4-4-4-4-4-4-|
A----2---5---0---3--|         |--4-4-4-4-4-4-4-4-4-4-4-4-4-4-4-4-|
E----0---3----------|         |--2-2-2-2-2-2-2-2-2-2-2-2-2-2-2-2-|


"oooooooh, what's that song"
e----------------------------------|
B------------------3-3-3-3-4-4-4-4-|
G--4-4-4-4-4-4-4-4-2-2-2-2-4-4-4-4-|
D--4-4-4-4-4-4-4-4-0-0-0-0-2-2-2-2-|
A--2-2-2-2-2-2-2-2-----------------|
E----------------------------------|

CHORUS

e----------------------------------|
B----------------------------------|
G----------------2-2-2-2-2-2-2-2-2-|
D--4-4-4-4-4-2-2-0-0-0-0-0-0-0-0-0-|
A--2-2-2-2-2-0-0-------------------|
E----------------------------------|

VERSE

CHORUS
Comments