Hives - Two-timing Touch And Broken Bones Chords & Tabs

 

Two-timing Touch And Broken Bones Chords & Tabs

Hives Chords & Tabs

Version: 1 Type: Bass Tab 0 ratings
1 star 2 stars 3 stars 4 stars 5 stars
comments

Two-timing Touch And Broken Bones Bass Tab

Why did no-one tab this??

I AM THE ANTIPOP!!!

play staccato
verse
G-------------------------|----------------------------|
D-------------------------|----------------------------|
A--------------0-----3----|--------------0-----3-------|
E--0-----3----------------|--0-----3-------------------|
[ Tab from: http://www.guitartabs.cc/tabs/h/hives/two_timing_touch_and_broken_bones_btab.html ]

If you want to get funkee....
G-------------------------|----------------------------|
D-------------------------|----------------------------|
A------------X--0---X--3--|-------------X---0--X----3--|
E--0--X---3---------------|--0---X---3-----------------|
DON'T play in chorus or pre chorus.
Fish on
Comments