Hives - Theme From Chords & Tabs

 

Theme From Chords & Tabs

Hives Chords & Tabs

Version: 1 Type: Tab 0 ratings
1 star 2 stars 3 stars 4 stars 5 stars
comments

Theme From Tab

Title- Theme From
Artist- The Hives

repeat 2 times:(let ring)
E||-----------------------------------------------------||
B||-----------------------------------------------------||
G||--2--10----------------------------------------------||
D||--2--10----------------------------------------------||
A||--0--8-----------------------------------------------||
E||-----------------------------------------------------||

Verse: (not correct strum pattern)
E||--------------------------------------------------|
B||--------------------------------------------------|
G||-2-2-2-2-2---10-10-10-10-----9--------------------|
D||-2-2-2-2-2---10-10-10-10-10--9--10--9-------------|
A||-0-0-0-0-0---8--8--8--8--10--7--10--9-------------|
E||-------------------------8------8---7-------------|

Chorus:(not correct strum pattern)
E||-----------------------------|-------------------------------||
B||-----------------------------|-------------------------------||
G||--7-7-7-7---9-9-9-9----------|--7-7-7-7--6-6-6-6-------------||
D||--7-7-7-7---9-9-9-9---7-7-7-7|--7-7-7-7--6-6-6-6---7-7-7-7---||
A||--5-5-5-5---7-7-7-7---7-7-7-7|--5-5-5-5--4-4-4-4---7-7-7-7---||
E||----------------------5-5-5-5|---------------------5-5-5-5---||
Then when they all say "Draw The Line", play this ^     
[ Tab from: http://www.guitartabs.cc/tabs/h/hives/theme_from_tab.html ]
Pause
            Let Ring
E||---------------------------------------------------------||
B||---------------------------------------------------------||
G||--2--10--2--10--2-----------------2----------------------||
D||--2--10--2--10--2--3-----2--------2--3-----2-------------||
A||--0--8---0--8---0--3---3---3--2---0--3---3---3--2---------|
E||-------------------1-----------------1--------------------|

Then Go back to
Chorus:(not correct strum pattern)
E||-----------------------------|-------------------------------||
B||-----------------------------|-------------------------------||
G||--7-7-7-7---9-9-9-9----------|--7-7-7-7--6-6-6-6-------------||
D||--7-7-7-7---9-9-9-9---7-7-7-7|--7-7-7-7--6-6-6-6---7-7-7-7---||
A||--5-5-5-5---7-7-7-7---7-7-7-7|--5-5-5-5--4-4-4-4---7-7-7-7---||
E||----------------------5-5-5-5|---------------------5-5-5-5---||
Then when they all say "Draw The Line", play this ^

Finnaly End on(as it fades out)

repeat 2 times:(let ring)
E||-----------------------------------------------------||
B||-----------------------------------------------------||
G||--2--10----------------------------------------------||
D||--2--10----------------------------------------------||
A||--0--8------------------------------------------------|
E||------------------------------------------------------|
Comments