Hives - Supply And Demand Chords & Tabs

 

Supply And Demand Chords & Tabs

Hives Chords & Tabs

Version: 1 Type: Bass Tab 0 ratings
1 star 2 stars 3 stars 4 stars 5 stars
comments

Supply And Demand Bass Tab

Nice song by the hives. will shake your rocking bones!
send me a e-mail if you donīt like the tab. kjff@sms.at.
thanks! cheers


|--------------------------------|
|--------------------------------|    listen to the song
|--------------------------------|    ...repeat...
|-8----6-8--6-8--6-8--6-8--------|
[ Tab from: http://www.guitartabs.cc/tabs/h/hives/supply_and_demand_btab.html ]
CHORUS:
                |Supply and Demand....
|---------------|----------------------------------------------------------|
|---------------|----------------------------------------------------------|
|---------------|-0-0----------3--0-0----------3-0-0-----3-3-2-2-----------|
|-0-0--0-0--0-0-|------0-0--0-0-------0-0--0-0-------3-3---------00--00-00-|

And then this little weird part (01:26):

|-------------------------|
|-------------------------|     Repeat! Listen to the CD
|-----6-8-----6-8-----6-8-|
|-8-------6-8-----6-8-----|
Comments