Hives - Statecontrol Chords & Tabs

 

Statecontrol Chords & Tabs

Hives Chords & Tabs

Version: 1 Type: Bass Tab 0 ratings
1 star 2 stars 3 stars 4 stars 5 stars
comments

Statecontrol Bass Tab

   
The Hives - Statecontrol
Tabbed By: chris
EMail: rock_metal@prodigy.net


Stadard Tuning(E A D G)

  Intro/
  |--------------|
  |--------------|
  |--------------|
  |(3)-----(3)---|
[ Tab from: http://www.guitartabs.cc/tabs/h/hives/statecontrol_btab.html ]
  1st verse/Outro
  |-----------------------|
  |------1---1------------|
  |-0-1-3-3-1-3--0-1-3----|
  |-----------------------|
  after verses
  2x
  |-----------------------|
  |*---------------------*|
  |*---------------------*|
  |-33333333--------------|

  2nd & 3rd verse
  |-----------------------|
  |-----------------------|
  |-0-1-3-----------------|
  |-----------------------|
  
  chorus
  |------------------------------|
  |------------------------------|
  |66666666--33333333------------|
  |-------------------(3)3333333-|

  8x
  |------------------------------|
  |------------------------------|
  |------------------------------|
  |--33333333--------------------|
Comments