Hives - See Through Head Chords & Tabs

 

See Through Head Chords & Tabs

Hives Chords & Tabs

Version: 3 Type: Tab 0 ratings
1 star 2 stars 3 stars 4 stars 5 stars
comments

See Through Head Tab

Artist: The Hives
Title: See Through Head
Album: Tyrannosaurus Hives (2004)
Tabbed by: Nick Budicin
Email: nickbudicin@hotmail.com
Tuning: No worries here, standard tuning.

Intro: Hard to figure out how many bars it is, my guess it 20, I'll stick with it.
It's also quite tiring, and repetitive so you must be committed: P
The Lyrics can also be found at the bottom of this tab.

e|------------------------------------------------------------------|
B|------------------------------------------------------------------|
G|------------------------------------------------------------------|
D|-5-4-3-x20--------------------------- (again not exact bars)-----|
A|------------------------------------------------------------------|
E|------------------------------------------------------------------|

This bit also doubles as the chorus, so when the chorus is indicated play this below
riff
e|--------------------------------------|
B|--------------------------------------|
G|--------------------------------------|that x4 then into verse
D|-------------8-8-8-8---------8-8-8-8--|
A|-10-10-10-10-6-6-6-6-6-6-6-6-6-6-6-6--|
E|-8--8--8--8----------4-4-4-4----------|

Verse: Fun to play and sounds cool too
e|-8--8--8--8----------------------|
B|-8--8--8--8--10-8-5--8-8-8-8-8---|
G|-9--9--9--9--10-8-5--8-8-8-8-8---|x10 will take you to the chorus
D|-10-10-10-10-10-8-5--8-8-8-8-8---|
A|-10-10-10-10---------------------|
E|-8--8--8--8----------------------|
[ Tab from: http://www.guitartabs.cc/tabs/h/hives/see_through_head_tab_ver_3.html ]
This is the order for the rest of the song:
Chorus
Verse
Chorus
Intro used as bridge this time - I think it's 20 times again
Chorus
Verse played over the lyrics to the chorus
And finish with these four chords
e|-----------------------------------------------------|
B|-----------------------------------------------------|
G|-----------------------------------------------------|
D|-10-10-10-10-----------------------------------------|
A|-10-10-10-10-----------------------------------------|
E|-8--8--8--8------------------------------------------|

That's the whole song as I hear it, any queries, or if u want me to tab any hives song
for ya personally I will try, they aren't really that hard, u can catch me at the above
e mail address, enjoy, and Howlin' Pelle Almqvist is a rock and roll superhero.



Lyrics: Verse 1
I know what you're thinking
You got a mind and it's stinking
You know why? You got a transparent cranium, a see through head!
Oh oh oh oh oh, it doesn't mean a thing,
Oh oh oh oh oh, it's just a paper ring,
Oh oh oh oh oh, it doesn't mean a thing,
I got thoughts in my head and I'm ready to swing.
Oh oh oh oh oh, And now you come my way.
Oh oh oh oh oh, I spot you from a mile away.
Oh oh oh oh oh, So now you come my way, I got cutlery, got napkin, saltshaker and pepper spray

Chorus:
You got a head, Gets you ahead, you got a head, a see through head full of............

Verse 2
Oh oh oh oh oh, You thought you had it made
Oh oh oh oh oh, Whining and dining paid
Oh oh oh oh oh, You thought you had it made
You want to cut a piece of cake you got to have a bit of blade.
Oh oh oh oh oh, I'm not so easily led
Oh oh oh oh oh, you pick up but the line is dead
Oh oh oh oh oh, I'm not so easily led
You always end up losing cause you got a see through head

Chorus

Verse 3:

Oh, it doesn't matter, its you, yeah you, its you, yeah you, its you, just you, its you 
your see through head!

Chorus. Finito.
Comments