Hives - See Through Head Chords & Tabs

 

See Through Head Chords & Tabs

Hives Chords & Tabs

Version: 2 Type: Tab 0 ratings
1 star 2 stars 3 stars 4 stars 5 stars
comments

See Through Head Tab

   
Song: See Through Head
Band: The Hives
Album: Tyrannosaurus Hives

This is an awesome song.

Standard Tuning (eADGBE)


intro
e)--------------------------|
B)--------------------------|
G)--------------------------|
D)----3-2-1-3-2-1-3-2-1-----|
A)--------------------------|
E)--------------------------|


Chorus
e)----------------------------------------------------|
B)----------------------------------------------------|
G)---------6666------6666------11111111-6666-8888-----|
D)----8888-6666-4444-6666-8888-11111111-6666-8888-----|
A)----8888-4444-4444-4444-8888-9-9-9-9--4444-8888-----|
E)----6666------2222------6666------------------------| X2


verse
e)---------------------------------|
B)----------8--6--3--6-6-6-6-6-----|
G)----------8--6--4--6-6-6-6-6-----|
D)----8888--8--6--5--6-6-6-6-6-----|
A)----8888-------------------------|
E)----6666-------------------------|

[ Tab from: http://www.guitartabs.cc/tabs/h/hives/see_through_head_tab_ver_2.html ]
interlude
e)-------------------------------|
B)-------------------------------|
G)----3-2-1-3-2-1-3-2-1-3-2-1----|
D)-------------------------------|
A)-------------------------------|
E)-------------------------------|


e)-------------------------------|
B)-------------------------------|
G)-------------------------------|
D)----3-2-1-3-2-1-3-2-1-3-2-1----|
A)-------------------------------|
E)-------------------------------|


outro
e)----------------------------------------------------|
B)----------------------------------------------------|
G)---------6666------6666------11111111-6666-8888-----|
D)----8888-6666-4444-6666-8888-11111111-6666-8888-----|
A)----8888-4444-4444-4444-8888-9-9-9-9--4444-8888-----|
E)----6666------2222------6666------------------------
once that was played twice another guitar comes in with


e)---------------------------------|
B)----------8--6--3--6-6-6-6-6-----|
G)----------8--6--4--6-6-6-6-6-----|
D)----8888--8--6--5--6-6-6-6-6-----|
A)----8888-------------------------|
E)----6666-------------------------|


e)
B)-----------------|
G)-----------------|
D)----8-8-8-8------|
A)----8-8-8-8------|
E)----6-6-6-6------|

i couldn't figure out how many times they play the fast part so just play along with
the music and u should get it.
Comments