Hives - See Through Head Chords & Tabs

 

See Through Head Chords & Tabs

Hives Chords & Tabs

Version: 1 Type: Tab 0 ratings
1 star 2 stars 3 stars 4 stars 5 stars
comments

See Through Head Tab

Tabbed by: Skunx (wax1@netcourrier.com)

THE HIVES- SEE THROUGH HEAD


Intro:
I know what you're thinking
You got a mind and it's stinking
You know why?
You got a transparent cranium, a see through head
e-|---------------------------------------------------------|
B-|--8-7----8-7----8-7----8-7----8-7------------------------|
G-|------10-----10-----10-----10-----10---------------------|
D-|---------------------------------------------------------|
A-|---------------------------------------------------------|
E-|---------------------------------------------------------|
play this four times... then

e-|--------------------------------------------------------------------------------------|
B-|--------------------------------------------------------------------------------------|
G-|--------------8-8-8-8---------8-8-8-8-------------13-13-13-13-8-8-8-8-10-10-10-10-----|
D-|--10-10-10-10-8-8-8-8-6-6-6-6-8-8-8-8-10-10-10-10-13-13-13-13-8-8-8-8-10-10-10-10-----|
A-|--10-10-10-10-6-6-6-6-6-6-6-6-6-6-6-6-10-10-10-10-11-11-11-11-6-6-6-6--8--8--8--8-----|
E-|---8--8--8--8---------4-4-4-4----------8--8--8--8-------------------------------------|
play this two times

[ Tab from: http://www.guitartabs.cc/tabs/h/hives/see_through_head_tab.html ]
Verse:
Oh oh oh oh oh
It doesn't mean a thing
e-|-----------------8--6--4--6-6-6-6------------------------|
B-|----------------10--8--4--8-8-8-8------------------------|
G-|----------------10--8--5--8-8-8-8------------------------|
D-|-10-10-10-10----10--8--6--8-8-8-8------------------------|
A-|-10-10-10-10---------------------------------------------|
E-|--8--8--8--8---------------------------------------------|


Chorus:
You got a head
Gets you ahead
You got a head
A see-through head full of..
e-|--------------------------------------------------------------------------------------|
B-|--------------------------------------------------------------------------------------|
G-|--------------8-8-8-8---------8-8-8-8-------------13-13-13-13-8-8-8-8-10-10-10-10-----|
D-|--10-10-10-10-8-8-8-8-6-6-6-6-8-8-8-8-10-10-10-10-13-13-13-13-8-8-8-8-10-10-10-10-----|
A-|--10-10-10-10-6-6-6-6-6-6-6-6-6-6-6-6-10-10-10-10-11-11-11-11-6-6-6-6--8--8--8--8-----|
E-|---8--8--8--8---------4-4-4-4----------8--8--8--8-------------------------------------|
play this two times


Bridge:
Doesn't matter
It's you, yeah you
It's you just you and your see-through head
e-|---------------------------------------------------------|
B-|---------------------------------------------------------|
G-|---5-4-3-5-4-3-5-4-3-5-4-3-5-4-3-------------------------|
D-|---------------------------------------------------------|
A-|---------------------------------------------------------|
E-|---------------------------------------------------------|
play this once

e-|---------------------------------------------------------|
B-|--8-7----8-7----8-7----8-7----8-7------------------------|
G-|------10-----10-----10-----10-----10---------------------|
D-|---------------------------------------------------------|
A-|---------------------------------------------------------|
E-|---------------------------------------------------------|
play this four times
Comments