Hives - Main Offender Chords & Tabs

 

Main Offender Chords & Tabs

Hives Chords & Tabs

Version: 8 Type: Tab 0 ratings
1 star 2 stars 3 stars 4 stars 5 stars
comments

Main Offender Tab

hives
main offender             intro
e--------------------------------------------------------------
b--------------------------------------------------------------
g-----7-7-7-7-7-7-7-7-7-7---5-6--------------------------------
d-----7-7-7-7-7-7-7-7-7-7-7-5-6--------------------------------
a-----5-5-5-5-5-5-5-5-5-5-7-3-4--------------------------------
e-------------------------5------------------------------------

[ Tab from: http://www.guitartabs.cc/tabs/h/hives/main_offender_tab_ver_8.html ]
verse
e--------------------------------------------------------------
b--------------------------------------------------------------
g----7-10-12---3-3-5---5-6-------------------------------------
d----7-10-12-5-3-3-5-7-5-6-------------------------------------
a----5-8--10-5-1-1-3-7-3-4-------------------------------------
e------------3-------5-----------------------------------------



I still have not figured out the chorus but i will keep trying.


And you will have to figure out the timing too.
Comments