Hives - Main Offender Chords & Tabs

 

Main Offender Chords & Tabs

Hives Chords & Tabs

Version: 5 Type: Tab 1 rating
1 star 2 stars 3 stars 4 stars 5 stars
comments

Main Offender Tab

#----------------------------------PLEASE NOTE---------------------------------#
#This file is the author's own work and represents their interpretation of the #
#song. You may only use this file for private study, scholarship, or research. #
#------------------------------------------------------------------------------#

Tab de "Main Offender" de The Hives  By  Adrian Rodriguez 

Bueno aqui va esta tab ke para mi me suena bien aunque le faltan los solos o las partes kon harta basura
Disfrutenla! 


Intro (00:00)

e|--------------------------------------------------------------------------|
b|--------------------------------------------------------------------------|
G|----7-7----7-7----7-7----7-7----5-5----7-7---10---12---3-3-3---5-5--------|
D|----7-7----7-7----7-7----7-7----5-5----7-7---10---12---3-3-3---5-5--------|
A|----5-5----5-5----5-5----5-5----3-3----5-5---8----10---1-1-1---3-3--------|
E|--------------------------------------------------------------------------| x4

Solo durante la Intro (00:07)

e|--------------------------------------------------------------------------------------|
B|---999999999999999999999----7------5-------3----3-------------------------------------|
G|--------------------------------------------------------------------------------------|
D|--------------------------------------------------------------------------------------|
A|--------------------------------------------------------------------------------------|
E|--------------------------------------------------------------------------------------|


Antes de verso (00:21)
e|-----------|
b|-----------|
G|----7-7----|
A|----7-7----|
D|----5-5----|
E|-----------|


Verso (00:24)                             Final de Verso (00:52)
e|---------------------------------|-----------------------------------------------------|
b|---------------------------------|-----------------------------------------------------|
G|---7-7---10---12----3-3-3---5-5--|--5-5---7--------------------------------------------|
A|---7-7---10---12----3-3-3---5-5--|--5-5---7-----------7-7-7-7-7------------------------|
D|---5-5---8----10----1-1-1---3-3--|--3-3---5-----------7-7-7-7-7------------------------|
E|---------------------------------|--------------------5-5-5-5-5------------------------|

[ Tab from: http://www.guitartabs.cc/tabs/h/hives/main_offender_tab_ver_5.html ]
Coro (00:56)
e|------------------------------------------------------------------------------------|
b|------------------------------------------------------------------------------------|
G|-------------------7-7-7-7----------------------------------------------------------|
A|-----7-7-7-7-------7-7-7-7-----3-3-3-3-----5-5-5-5----------------------------------|
D|-----7-7-7-7-------5-5-5-5-----3-3-3-3-----5-5-5-5----------------------------------|
E|-----5-5-5-5-------------------1-1-1-1-----3-3-3-3----------------------------------|


e|---------------------------------------|
b|---0-0-0-0-----------------------------|
G|---2-2-2-2-----7-7-7-7-----------------|
A|---2-2-2-2-----7-7-7-7-----3-3-3-3-----|
D|---------------5-5-5-5-----3-3-3-3-----|
E|---------------------------1-1-1-1-----|

Final de Coro (01:12)
e|------------|
b|------------|
G|----15......|
A|------------|
D|------------|
E|------------|

Verso (01:14)                           Final de Verso (01:46)

e|---------------------------------|-----------------------------------------------------|
b|---------------------------------|-----------------------------------------------------|
G|---7-7---10---12----3-3-3---5-5--|--5-5---7--------------------------------------------|
A|---7-7---10---12----3-3-3---5-5--|--5-5---7-----------7-7-7-7-7------------------------|
D|---5-5---8----10----1-1-1---3-3--|--3-3---5-----------7-7-7-7-7------------------------|
E|---------------------------------|--------------------5-5-5-5-5------------------------|

Coro (01:49)

e|------------------------------------------------------------------------------------|
b|------------------------------------------------------------------------------------|
G|-------------------7-7-7-7----------------------------------------------------------|
A|-----7-7-7-7-------7-7-7-7-----3-3-3-3-----5-5-5-5----------------------------------|
D|-----7-7-7-7-------5-5-5-5-----3-3-3-3-----5-5-5-5----------------------------------|
E|-----5-5-5-5-------------------1-1-1-1-----3-3-3-3----------------------------------|


e|---------------------------------------|
b|---0-0-0-0-----------------------------|
G|---2-2-2-2-----7-7-7-7-----------------|
A|---2-2-2-2-----7-7-7-7-----3-3-3-3-----|
D|---------------5-5-5-5-----3-3-3-3-----|
E|---------------------------1-1-1-1-----|


Final de Coro (02:06)
e|------------|
b|------------|
G|----15......|
A|------------|
D|------------|
E|------------|


Solo durante la Intro (00:07)

e|--------------------------------------------------------------------------------------|
B|---999999999999999999999----7------5-------3----3-------------------------------------|
G|--------------------------------------------------------------------------------------|
D|--------------------------------------------------------------------------------------|
A|--------------------------------------------------------------------------------------|
E|--------------------------------------------------------------------------------------|


Intro
Antes de verso
Verso
Final de verso
Coro
Final de Coro
Verso
Final de verso
Coro
Final de Coro
Coro
Comments