Hives - Main Offender Chords & Tabs

 

Main Offender Chords & Tabs

Hives Chords & Tabs

Version: 3 Type: Tab 0 ratings
1 star 2 stars 3 stars 4 stars 5 stars
comments

Main Offender Tab

Main offender
by
the hives

VERSE
[ Tab from: http://www.guitartabs.cc/tabs/h/hives/main_offender_tab_ver_3.html ]
e-|--------------------------------------------------------------------|
B-|--------------------------------------------------------------------|
G-|------------10-12-------10------------10-12-----10------12----------|
D-|-7-10-11-12-10-12-7-8-8-10---10-11-12-10-12-7-8-10---10-12-10-11-12-|
A-|-7-10-11-12--8-10-7-8-8--8---10-11-12--8-10-7-8--8---10-10-10-11-12-|
E-|-5--8--9-10-------5-6-6----0--8--9-10-------5-6----0--8-----8--9-10-|

CHORUS

e-|--------------------------------------|
B-|--------------------------------------|
G-|--------------------------7-------7---|
D-|-12-12-12-7-7-7-7-7-7---7-7-3-5-7-7-3-|
A-|-12-12-12-7-7-7-7-7-7---7-5-3-5-7-5-3-|
E-|-10-10-10-5-5-5-5-5-5-0-5---1-3-5---1-|
Comments