Hives - Main Offender Chords & Tabs

 

Main Offender Chords & Tabs

Hives Chords & Tabs

Version: 2 Type: Tab 1 rating
1 star 2 stars 3 stars 4 stars 5 stars
comments

Main Offender Tab

#----------------------------------PLEASE NOTE----------------------------------#
# This file is the author's own work and represents their interpretation of the #
# song. You may only use this file for private study, scholarship, or research. #
#-------------------------------------------------------------------------------#
------------------------------------------------------------------------------
			     MAIN OFFENDER - The Hives
------------------------------------------------------------------------------
I think this is right and it my first tab so please be gentle.i doubt its completely 
correct but it sounds cool with mucho distortion and while you're wearing a damn snazzy
suit. any corrections feel free to email me at thomaswader@hellonasty.zzn.com


e|---------------------------------------------------|
B|---------------------------------------------------|
G|-7-x-7-7-7--x-7-7-7--x-7-7-7-----------------------|
D|-7-x-7-7-7--x-7-7-7--x-7-7-7-----------------------|
A|-5-x-5-5-5--x-5-5-5--x-5-5-5-----------------------|
E|---------------------------------------------------|
[ Tab from: http://www.guitartabs.cc/tabs/h/hives/main_offender_tab_ver_2.html ]
Main riff
e|----------------------------------------------------------------------|
B|----------------------------------------------------------------------|
G|----------------------------------------------------------------------|
D|-3-5-6-7--10-12--3-2--5-0-5-0--5-6-7--10-12---3-2---10-0-0-10-0--6-7--|
A|-1-3-4-5--8-10---1-0--3-0-3-0--3-4-5--8-10----1-0---8--0-0-8--0--4-5--|
E|----------------------------------------------------------------------|

After main riff before singing    also played quickly before chorus
e|------------------------------------------|
B|------------------------------------------|
G|-7-7-7------------------------------------|
D|-7-7-7------------------------------------|
A|-5-5-5------------------------------------|
E|------------------------------------------|

Chorus
e|-----------------------------------------------------|
B|-------------------------    after drums 10 press whammy bar down--|
G|------7---------------------10-----------------------|
D|-7----7-x8--3-----5---------10-x6--before-drums------|
A|-7-x8-5-----3-x8--5-x8------8------------------------|
E|-5----------1-----3----------------------------------|

Next pause
e|------------------------------------------------------|
B|------------------------------------------------------|
G|------------------------------------------------------|
D|-2-3-5-5-2-3-5-7-2-3-5-7-2-3-5-7----------------------|
A|-0-1-3-7-0-1-3-5-0-1-3-5-0-1-3-5----------------------|
E|------------------------------------------------------|

I don't know the crazy notes at the end
e|------------------------------------------------------|
B|-----------------------------------------------------|
G|-7-7-7-7-7--------------------------------------------|
D|-7-7-7-7-7---------------------------------------------|
A|-5-5-5-5-5------------------------------------------|
E|------------------------------------------------------
=============================================================================== 


Comments