Hives - Main Offender Chords & Tabs

 

Main Offender Chords & Tabs

Hives Chords & Tabs

Version: 1 Type: Tab 0 ratings
1 star 2 stars 3 stars 4 stars 5 stars
comments

Main Offender Tab

The Hives - Main Offender

Standard Tuning (EBGDAE)

Transcribed by: Alan Good (kentucky_fried_children_@hotmail.com)
questions, comments, corrections very welcome.

The rhythm isnt put down here but like all Hives songs its really easy to figure it out. 

INTRO

e-|--------------------------------------------|
B-|--------------------------------------------|
G-|--------------------------------------------|
D-|---12-x-x-12-x-x-12-x-x-12----9--10--11-----|
A-|---12-x-x-12-x-x-12-x-x-12----9--10--11-----|
E-|---10-x-x-10-x-x-10-x-x-10----7---8---9-----|

VERSE
[ Tab from: http://www.guitartabs.cc/tabs/h/hives/main_offender_tab.html ]
e-|--------------------------------------------------------|
B-|--------------------------------------------------------|
G-|-------10/12---------10---------------------------------|
D-|--12---10/12---7/8---10---10--11--12--------------------|
A-|--12----8/10---7/8----8---10--11--12--------------------|
E-|--10-----------5/6---------8---9--10--------------------|

CHORUS

e-|--------------------------------------|
B-|--------------------------------------|
G-|--------7777--------------------------|
D-|--7777--7777--3333---5555-------------|
A-|--7777--5555--3333---5555-------------|
E-|--5555--------1111---3333-------------|
Comments