Hives - Main Offender Chords & Tabs

 

Main Offender Chords & Tabs

Hives Chords & Tabs

Version: 2 Type: Chords 0 ratings
1 star 2 stars 3 stars 4 stars 5 stars
comments

Main Offender Chords

   
#----------------------------------PLEASE NOTE---------------------------------#
#This file is the author's own work and represents their interpretation of the #
#song. You may only use this file for private study, scholarship, or research. #
#------------------------------------------------------------------------------#

Music X Tabs [http://www.mxtabs.net]
Band - The Hives
Album - Vini Vidi Vicious 
and Your New Favourite Band
Track - 2 - Main Offender
Tabbed by Kevin Green (evertonian_kev@hotmail.com)

Standard Tuning

Chords :    
[ Tab from: http://www.guitartabs.cc/tabs/h/hives/main_offender_crd_ver_2.html ]
   D   G    C   F  A#   
e---------------------|
B---------------------|
G------12------10-----|
D--12--12--10--10--8--| 
A--12--10--10--8---8--|
E--10------8-------6--|

Intro
   D      G    D   
e------------------|
B------------------|
G------------------|
D--12-----10-/-12--| 
A--12-----10-/-12--|
E--10-----8--/-10--|

Verse :    

   D   G   A# F   C   
e--------------------|
B--------------------|
G------12-----10-----|
D--12--12--8--10--10-| 
A--12--10--8--8---10-|
E--10------6------8--|

Chorus:

   D   F  A#   
e-------------|
B-------------|
G------10-----|
D--12--10--8--| 
A--12--8---8--|
E--10------6--|
Comments