Hives - Main Offender Chords & Tabs

 

Main Offender Chords & Tabs

Hives Chords & Tabs

Version: 5 Type: Bass Tab 0 ratings
1 star 2 stars 3 stars 4 stars 5 stars
comments

Main Offender Bass Tab

   
Artist: THe Hives
Song: Main Offender
Tabs: Bass
Key: > = Let It Ring

i heard lots of people tab this song, but nobody has got it right. its actually
a pretty hard song to tab but doesnt actually take THAT long to learn. a little fast though

Intro
G:-------
D:-------
A:-0-3-4-
E:-------

G:------------------------------------------------
D:-0---3-5--------3-2-----0---3-5-----3-----5-----
A:---------0-1--0-----3-4---------0-1---1-3---3-4-     x2
E:------------------------------------------------

Little Bridge 
G:----------------
D:-0-0-3-0-5-3----
A:------------3-4-  x4
E:----------------

Verse 1
G:-------
D:-------
A:-0-3-4-
E:-------

G:------------------------------------------------
D:-0---3-5--------3-2-----0---3-5-----3-----5-----
A:---------0-1--0-----3-4---------0-1---1-3---3-4-     x4
E:------------------------------------------------

Prechorus
G:-----------------
D:-0>>>>>>>--------
A:---------0000000-
E:-----------------

Chorus
G:----------------------------------
D:---------000000003333333355555555-
A:-00000000-------------------------
E:----------------------------------

G:---------------------------
D:---------000000003>>>>>>>3-   <-- That last D3 on "WHY me?"
A:-00000000------------------
E:---------------------------

Verse 2
G:-------
D:-------
A:-0-3-4-
E:-------
[ Tab from: http://www.guitartabs.cc/tabs/h/hives/main_offender_btab_ver_5.html ]
G:------------------------------------------------
D:-0---3-5--------3-2-----0---3-5-----3-----5-----
A:---------0-1--0-----3-4---------0-1---1-3---3-4-
E:------------------------------------------------ x2

G:---
D:-0-
A:---  <-- As the mini guitar break comes in

G:-------
D:-------
A:-0-3-4-
E:-------

G:------------------------------------------------
D:-0---3-5--------3-2-----0---3-5-----3-----5-----
A:---------0-1--0-----3-4---------0-1---1-3---3-4-
E:------------------------------------------------ x2


Prechorus
G:-----------------
D:-0>>>>>>>--------
A:---------0000000-
E:-----------------

Chorus
G:----------------------------------
D:---------000000003333333355555555-
A:-00000000-------------------------
E:----------------------------------

G:---------------------------
D:---------000000003>>>>>>>3-   <-- That last D3 on "WHY me?"
A:-00000000------------------
E:---------------------------

Outro
G:-------
D:-------
A:-0-3-4-
E:-------

G:------------------------------------------------
D:-0---3-5--------3-2-----0---3-5-----3-----5-----
A:---------0-1--0-----3-4---------0-1---1-3---3-4-
E:------------------------------------------------ x2

G:------------------
D:------------------
A:-5-5-5-5-5>>>>>>>-
E:------------------


There we go. Its pretty easy once u get used to the the main verse riff.
Any questions ask me at chaoz_golem@yahoo.com
Comments