Hives - Main Offender Chords & Tabs

 

Main Offender Chords & Tabs

Hives Chords & Tabs

Version: 4 Type: Bass Tab 0 ratings
1 star 2 stars 3 stars 4 stars 5 stars
comments

Main Offender Bass Tab

   
Artist: The Hives
Song: Main Offender
Album: Veni Vendi Vicious
Tuning: Standard (E,A,D,G)

Intro/Verse/Bridge:
G:-------------------
D:-----0--3-5-----3-5
A:0-34--------1-1----
E:-------------------

G:-----------------------
D:-----0--3-5-----3--0-53
A:0-34--------1-1--------
E:-----------------------

Pre-Verse 1:
G:--------------------
D:--------------------
A:--------------------
E:0-0-30-30-0000-30-30


End of Verse:
G:-------------------------
D:0-0-0-0-0-0-0-0-0--------
A:------------------0000000
E:-------------------------

[ Tab from: http://www.guitartabs.cc/tabs/h/hives/main_offender_btab_ver_4.html ]
Chorus:
G:-------------------------------------------
D:-------------------------------------------
A:00000000-55555555-88888888-1010101010101010    the \"10\" iz 10 & not 1-0 played quickly
E:-------------------------------------------

G:-------------------------------------------
D:------------------3~------------REST-------
A:00000000-55555555--------------------------
E:-------------------------------------------

Outro:
G:------------
D:0-0-0-0-0~--      u dont have 2 play the last note
A:--------5~--      as a chord but i jus do it anywayz
E:------------

Kinda simple 2 play. Listen 2 CD 4 rhythm
Comments