Hives - Knock Knock Chords & Tabs

 

Knock Knock Chords & Tabs

Hives Chords & Tabs

Version: 1 Type: Bass Tab

Knock Knock Bass Tab

   
Song: Knock Knock
Artist: The Hives
Album: Veni Vidi Vicious
Bassist: Dr Matt Destruction
Tabber: Duncan Usher, iksose3@hotmail.com



Verse (x2)
G|----------------2----------4----------7-----------|
D|--------------------------------------------------|
A|-----4------0-0---0-0--2-2---2-2--5-5---5-5-------|
E|-2-2---2-2----------------------------------------|  

Pre-Chorus (x2)
G|--------------------------------------------------|
D|--------------------------------------------------|
A|-4-4-4-4-4-4-4-4-7-7-7-7-7-7-7--------------------|
E|--------------------------------------------------|  

G|--------------------------------------------------|
D|--------------------------------------------------|
A|-0-0-0-0-0-0-0-0-5-5-5-5-5-5-5--------------------|
E|--------------------------------------------------|  

Verse (x2)
G|----------------2----------4----------7-----------|
D|--------------------------------------------------|
A|-----4------0-0---0-0--2-2---2-2--5-5---5-5-------|
E|-2-2---2-2----------------------------------------|  

Pre-Chorus (x2)
G|--------------------------------------------------|
D|--------------------------------------------------|
A|-4-4-4-4-4-4-4-4-7-7-7-7-7-7-7--------------------|
E|--------------------------------------------------|  

G|--------------------------------------------------|
D|--------------------------------------------------|
A|-0-0-0-0-0-0-0-0-5-5-5-5-5-5-5--------------------|
E|--------------------------------------------------|  

Chorus
G|--------------------------------------------------|
D|--------------------------------------------------|
A|--4-4-4-4-4-4-4-4-4-4-4-4-4-4-4-4-4-4-------------|
E|--------------------------------------------------|  

G|--------------------------------------------------|
D|--------------------------------------------------|
A|-0~--2~--4~--4~--0~--2~--5-5-5-5-5-5-5-5-5-5-5-5--|
E|--------------------------------------------------|  
[ Tab from: http://www.guitartabs.cc/tabs/h/hives/knock_knock_btab.html ]
G|--------------------------------------------------|
D|--------------------------------------------------|
A|--4-4-4-4-4-4-4-4-4-4-4-4-4-----------------------|
E|--------------------------------------------------|

Verse (x2)
G|----------------2----------4----------7-----------|
D|--------------------------------------------------|
A|-----4------0-0---0-0--2-2---2-2--5-5---5-5-------|
E|-2-2---2-2----------------------------------------|  

Pre-Chorus (x2
G|--------------------------------------------------|
D|--------------------------------------------------|
A|-4-4-4-4-4-4-4-4----7-7-7-7-7-7-7-----------------|
E|--------------------------------------------------|  

G|--------------------------------------------------|
D|--------------------------------------------------|
A|-0-0-0-0-0-0-0-0----5-5-5-5-5-5-5-----------------|
E|--------------------------------------------------|

Chorus
G|--------------------------------------------------|
D|--------------------------------------------------|
A|--4-4-4-4-4-4-4-4-4-4-4-4-4-4-4-4-4-4-------------|
E|--------------------------------------------------|  

G|--------------------------------------------------|
D|--------------------------------------------------|
A|-0~--2~--4~--4~--0~--2~--5-5-5-5-5-5-5-5-5-5-5-5--|
E|--------------------------------------------------|  

G|--------------------------------------------------|
D|--------------------------------------------------|
A|--4-4-4-4-4-4-4-4-4-4-4-4-4-4-4-4-4-4-4-4-4-------|
E|--------------------------------------------------|

Bridge (x8)
G|--------------------------------------------------|
D|--------------------------------------------------|
A|---0-5-0-5-0--------------------------------------|
E|-2------------------------------------------------|    

End On
G|--------------------------------------------------|
D|--------------------------------------------------|
A|--------------------------------------------------|
E|-2~-----------------------------------------------|    



And thatís it, another great Hives song. Iíve tried to
put it in an easy to understand way so I hope its all
right. Any comments, questions, corrections, email
me at IKSOSE3@Hotmail.com. 
Cheers! :D