Hives - Introduce The Metric System In Time Chords & Tabs

 

Introduce The Metric System In Time Chords & Tabs

Hives Chords & Tabs

Version: 1 Type: Tab 0 ratings
1 star 2 stars 3 stars 4 stars 5 stars
comments

Introduce The Metric System In Time Tab

THE HIVES ----------- INTRODUCE THE METRIC SYSTEM IN TIME
CD: VENI VIDI VICIOUS
tabbed by: dave schneider

		  riff 1
 E|----------|--------------------------------|
 B|----------|-------------------------8-8----|
 G|----------|--7--9-7---9--9--7--9-7--8-8----|
 D|----------|--8-10-8--10-10--8-10-8--8-8----|
 A|----------|--8-10-8--10-10--8-10-8--6-6----|
 E|--333333--|--6--8-6---8--8--6--8-6---------|
[ Tab from: http://www.guitartabs.cc/tabs/h/hives/introduce_the_metric_system_in_time_tab.html ]
riff 2
 E|-----------------------|
 B|-----------------------|
 G|-----------------------|
 D|-----------------------|
 A|-----------------------|
 E|--8-6-8-8----8-6-8-8---|

riff 3		(2x)
 		
 E|-13-13--13-13-13---11-11--11-11-11--|  
 B|-10-10--10-10-10---10-10--10-10-10--|  *if its not comfortable
 G|-10-10--10-10-10---10-10--10-10-10--|   you dont have to play
 D|-10-10--10-10-10---10-10--10-10-10--|   the 8 on the A string
*A|--8--8---8--8--8----8--8---8--8--8--|*
 E|------------------------------------|


listen to the song for how many times to play each part..




	“oh no, oh no, oh no,  oh no!”	Howlin’ Pelle
Comments