Hives - Inspection Wise 1999 Chords & Tabs

 

Inspection Wise 1999 Chords & Tabs

Hives Chords & Tabs

Version: 1 Type: Chords 0 ratings
1 star 2 stars 3 stars 4 stars 5 stars
comments

Inspection Wise 1999 Chords

   
Tabbed by eddie g, send corrections or comments to (scissorhands_1988@hotmail.com).

Experiment with what sounds good, but these are the Preferred Amp Settings: 
High Treble, Mid to Low Middle Range, Low Bass, First (Treble) Pickup, Gain of 1 to 5
[ Tab from: http://www.guitartabs.cc/tabs/h/hives/inspection_wise_1999_crd.html ]
Intro 2x (bending each note):
E---x--x--x--3--0-----0----------------------------------------------------------0-----0-
B------------------3-------------------------------------------------x--x--x--3-----3----
G------------------------x--x--x--2--0-----0----x--x--x--2--0-----0----------------------
D---------------------------------------2----------------------2-------------------------
A----------------------------------------------------------------------------------------
E----------------------------------------------------------------------------------------

Verse:
E / D
B   D   A
E   B   D   A


Chorus:
B   E

Muted Stumming

Intro 1x

Verse

End:
E----------------------------------------------------------------
B----------------------------------------------------------------
G----------------------------------------------------------------
D------0-----0----------0-----0----------------------------------
A---2-----2-----2----2-----2-----2-------------------------------
E----------------------------------------------------------------
Comments