Hives - Hives Are Law You Are Crime Chords & Tabs

 

Hives Are Law You Are Crime Chords & Tabs

Hives Chords & Tabs

Version: 2 Type: Tab 0 ratings
1 star 2 stars 3 stars 4 stars 5 stars
comments

Hives Are Law You Are Crime Tab

This song has no vocals in it and is from the album Your New Favourite Band.


e---10---------------------------------------------------|
b------12------------------------------------------------|
g-----------7--9-----------------------------------------|    x3
d------------------7--6----------------------------------|
a--------------------------------------------------------|
E--------------------------10--7-------------------------|

[ Tab from: http://www.guitartabs.cc/tabs/h/hives/hives_are_law_you_are_crime_tab_ver_2.html ]
e----10------------10-------10---------------------------|
b-------12------------12---------------------------------|
g-----------7--9-----------------------------------------|    x1
d--------------------------------------------------------|
a--------------------------------------------------------|
E--------------------------------------------------------|


and

e--------------------------------------------------------|
b--------------------------------------------------------|
g-----66666----------------------------------------------|
d-----66666-6---77777-6----------------------------------|
a-----44444-6---77777-6----------------------------------|
E-----------4---55555-4----------------------------------|
Comments