Hives - Hate To Say I Told You So Chords & Tabs

 

Hate To Say I Told You So Chords & Tabs

Hives Chords & Tabs

Version: 9 Type: Tab 0 ratings
1 star 2 stars 3 stars 4 stars 5 stars
comments

Hate To Say I Told You So Tab

The Hives
Hate to say I told you so


Chorus:
|-------------------------------------------------------
|-------------------------------------------------------
|---------------------66--------------------------------
|------888----6-66----66-----444------------------------
|------888----6-66----44-----444------------------------
|------666----4-44-----------222------------------------

[ Tab from: http://www.guitartabs.cc/tabs/h/hives/hate_to_say_i_told_you_so_tab_ver_9.html ]
hate to say I told you so.......
|-------------------------------------------------------
|-------------------------------------------------------
|-----8888888888888-------------------------------------
|-----8888888888888-----44------------------------------
|-----6666666666666-----44------------------------------
|-----------------------22------------------------------


Bass:
|-------------------------------------------------------
|-------------------------------------------------------
|-------------------44---------------------------------
|------666---4-44---------222----------------------------


Questions mail me on:
bobus@pjokk.com
Comments