Hives - Hate To Say I Told You So Chords & Tabs

 

Hate To Say I Told You So Chords & Tabs

Hives Chords & Tabs

Version: 7 Type: Tab 0 ratings
1 star 2 stars 3 stars 4 stars 5 stars
comments

Hate To Say I Told You So Tab

|-------------------------
|-------------------------
|-------------------------
|-9-9-9-5-5-5-7-7-7-3-3-3-
|-9-9-9-5-5-5-7-7-7-3-3-3-
|-7-7-7-3-3-3-5-5-5-1-1-1-
[ Tab from: http://www.guitartabs.cc/tabs/h/hives/hate_to_say_i_told_you_so_tab_ver_7.html ]
it's swift slides between them and all downstrokes quite fast. This is played throughout the whole song that I can work out, with some weird screeching noise in it, but that is basically the song, then there's a little bass solo, which is also played throughout the whole song.

Bass riff
|-------------------------
|-------------------------
|-------------------------
|-7-7-7-3-3-3-5-5-5-1-1-1-
all very simple
Comments