Hives - Hate To Say I Told You So Chords & Tabs

 

Hate To Say I Told You So Chords & Tabs

Hives Chords & Tabs

Version: 6 Type: Tab 1 rating
1 star 2 stars 3 stars 4 stars 5 stars
comments

Hate To Say I Told You So Tab

#----------------------------------PLEASE NOTE---------------------------------#
#This file is the author's own work and represents their interpretation of the #
#song. You may only use this file for private study, scholarship, or research. #
#------------------------------------------------------------------------------##

                            HATE TO SAY I TOLD YOU SO
                            As recorded by The Hives
                 (From the 2001 LP recording VENI VIDI VISCIOUS)

Words and Music by The Hives
Transcribed by John Henson - john@theredqueen.net
www.theredqueen.net

This is played pretty much throughout :

|---------|---------|-------------|---------|
|---------|---------|-------------|---------|
|-7-7-7-7-|-5-5-5-5-|-10-10-10-10-|-3-3-3-3-|
|-7-7-7-7-|-5-5-5-5-|-10-10-10-10-|-3-3-3-3-|
|-5-5-5-5-|-3-3-3-3-|--8--8--8--8-|-1-1-1-1-|
|---------|---------|-------------|---------|
[ Tab from: http://www.guitartabs.cc/tabs/h/hives/hate_to_say_i_told_you_so_tab_ver_6.html ]
This is played over the outro :

|--------------------------|
|-------------------15-15--|
|-14-14-14-14-14-14-14-14--|
|--------------------------|
|--------------------------|
|--------------------------|


--------------------------------------------------------------------------------
Legend
------

 h  = hammer-on		 |  = bar
 p  = pull-off		||  = double bar
 b  = bend		||* = repeat start
 r  = bend release	*|| = repeat end
 /  = slide up/down	*|  = double bar (end)
[5] = nat. harmonic	 !  = repeat beat (ΒΌ,8th)
 = art. harmonic	!!  = repeat beat (16th)
 ~  = vibrato		 %  = repeat measure
 tr = trill		 :  = bar (freetime)
 T  = tap		du  = tremolo bar dip
 TP = trem. picking	 d  = tremolo bar down
 PM = palm muting	 u  = tremolo bar up
 S  = slap		ud  = tremolo bar inverted dip
 P  = pop		 =  = hold (bend or tremolo bar)
--------------------------------------------------------------------------------
Comments