Hives - Hate To Say I Told You So Chords & Tabs

 

Hate To Say I Told You So Chords & Tabs

Hives Chords & Tabs

Version: 5 Type: Tab 6 ratings
1 star 2 stars 3 stars 4 stars 5 stars
comments

Hate To Say I Told You So Tab

   
the hives
hate to say i told you so

x=rakethis is one of my fovorite songs. the hives are beast.




intro guitar 1

e|------------------------------------------------|
B|------------------------------------------------|
G|------------------------------------------------|
D|------------------------------------------------|
A|-9-9-0-7-7-7-0-12-12-12-0-5-5-5-5-0|\  x8
E|-7-7-0-5-5-5-0-10-10-10-0-3 3 3 3-0|/

intro guitar 2
0:09

e|----------------------------------|
B|----------------------------------|
G|----------------------------------|
D|----------------------------------|
A|-7-7-7-7-7-7-5-3-2-1-3-5|\ x1
E|-7-7-7-7-7-7-5-3-2-1-3-5|/

e|-----------------------------------------|
B|-----------------------------------------|
G|-----------------------------------------|
D|-----------------------------------------|
A|-7-7-5-5-5-10-10-10-3-3-3-3-0|\ x4
E|-5-5-3-3-3-8---8---8--1-1-1-1-0|/

verse guitar 1

e|--------------------------------------------------|
B|-------------------------------------------------|
G|-------------------------------------------------|
D|-------------------------------------------------|
A|-9-9-0-7-7-7-0-12-12-12-0-5-5-5-5-0|\ x8
E|-7-7-0-5-5-5-0-10-10-10-0-3-3-3-3-0|/

Verse guitar 2
played at 0:39, 0:46, 0:53, 1:00

e|-x-x-x-x-x-x-x-x-x-x-x-x-x-x-x-x-|
B|-x-x-x-x-x-x-x-x-x-x-x-x-x-x-x-x|
G|-x-x-x-x-x-x-x-x-x-x-x-x-x-x-x-x|
D|-x-x-x-x-x-x-x-x-x-x-x-x-x-x-x-x|
A|-x-x-x-x-x-x-x-x-x-x-x-x-x-x-x-x|\
E|-x-x-x-x-x-x-x-x-x-x-x-x-x-x-x-x|/

chorus guitar 1
[ Tab from: http://www.guitartabs.cc/tabs/h/hives/hate_to_say_i_told_you_so_tab_ver_5.html ]
e|---------------------------------------------------------------------------------|
B|---------------------------------------------------------------------------------|
G|---------------------------------------------------------------------------------|
D|---------------------------------------------------------------------------------|
A|-12-12-12-12-12-12-12-12-12-12-5-5-3-3-3-8-8-8-1-1-1-1-0|\
E|-10-10-10-10-10-10-10-10-10-10-5-5-3-3-3-8-8-8-1-1-1-1-0|/

chorus guitar 2

e|--x-x-x-x-x-x-x-x-x-x-x-x-----------------------------------|
B|-x-x-x-x-x-x-x-x-x-x-x-x------------------------------------|
G|-x-x-x-x-x-x-x-x-x-x-x-x-------------------------------------|
D|-x-x-x-x-x-x-x-x-x-x-x-x-------------------------------------|
A|-x-x-x-x-x-x-x-x-x-x-x-x-5-5-3-3-3-8-8-8-1-1-1-1-0|\
E|-x-x-x-x-x-x-x-x-x-x-x-x-5-5-3-3-3-8-8-8-1-1-1-1-0|/

outro guitar 1

e|--------------|
B|--------------|
G|--------------|
D|--------------|
A|-5-5-5-5-5|\
E|-3-3-3-3-3|/

e|-----------------------------------------------|
B|-----------------------------------------------|
G|-----------------------------------------------|
D|-----------------------------------------------|
A|-9-9-0-7-7-7-12-12-12-0-5-5-5-5-0|\ x5
e|-7-7-0-5-5-5-10-10-10-0-3-3-3-3-0/

e|-15|{ repeatedly for rest of song}
B|----|
G|----|
D|----|
A|----|
E|----|

outro guitar 2

e|--------------|
G|-------------|
B|--------------|
D|--------------|
A|-5-5-5-5-5|\
E|-3-3-3-3-3|/

e|-----------------------------------------|
B|-----------------------------------------|
G|-----------------------------------------|
D|-----------------------------------------|
A|-7-7-5-5-5-10-10-10-3-3-3-3-0|\ x8
E|-5-5-3-3-3-8--8---8---1-1-1-1-0|/

order

intro
verse
chorus
verse ( guitar 2 at 1:25, 1:32, 1:39, 1:46)
chorus
outro
Comments