Hives - Hate To Say I Told You So Chords & Tabs

 

Hate To Say I Told You So Chords & Tabs

Hives Chords & Tabs

Version: 3 Type: Tab 2 ratings
1 star 2 stars 3 stars 4 stars 5 stars
comments

Hate To Say I Told You So Tab

#----------------------------------PLEASE NOTE--------------------------------#
#This file is the author's own work and represents their interpretation of the#
#song. You may only use this file for private study, scholarship, or research.#
#-----------------------------------------------------------------------------#
#-- File created with Instab - http://www.pconline.com/~smcarey/instab.html --#
#-----------------------------------------------------------------------------#

Author/Artist: hives, The 
Title: Hate to Say I Told You So
Album: Dunno???????
Transcribed by: Jack
Email: Jackass399@hotmail.com

Please send comments/suggestions.This is how i play it and it sounds ok.

[ Tab from: http://www.guitartabs.cc/tabs/h/hives/hate_to_say_i_told_you_so_tab_ver_3.html ]
-|----------------------------------------------------------------------------
-|----------------------------------------------------------------------------
-|-------------9-9------------------------------------------------------------
-|-11-11--9-9--9-9--7-7-------------------------------------------------------
-|-11-11--9-9--7-7--7-7-------------------------------------------------------
-|-9--9---7-7-------5-5-------------------------------------------------------
 Main riff  Verses/Intro                                                      

-|----------------------------------------------------------------------------
-|----------------------------------------------------------------------------
-|-11-11-11-11-11-11-11-11-11-11-11-11-11-11-11-11----------------------------
-|-11-11-11-11-11-11-11-11-11-11-11-11-11-11-11-11----------------------------
-|-9--9--9--9--9--9--9--9--9--9--9--9--9--9--9--9-----------------------------
-|----------------------------------------------------------------------------
  The Chorus bit that goes "Hate to say i told u so"                          

Comments