Hives - Hate To Say I Told You So Chords & Tabs

 

Hate To Say I Told You So Chords & Tabs

Hives Chords & Tabs

Version: 18 Type: Tab 0 ratings
1 star 2 stars 3 stars 4 stars 5 stars
comments

Hate To Say I Told You So Tab

What A Song!!!
This is How i Play it!!!
Have Fun!!!
Please Rate and say what you think in the comments section...Cheers!

Intro 

|-----------------------------------------| x8
|-----------------------------------------|
|-----------------------------------------|
|-----------------------------------------|	Riff 1 
|---12-12-0--10-10-0---15-15-0---8-8-8----|
|---10-10-0--8--8--0---13-13-0---6-6-6----|

Drum Part

Verse 1

|-----------------------------------------| x8
|-----------------------------------------|
|-----------------------------------------|
|-----------------------------------------|	Riff 1 
|---12-12-0--10-10-0---15-15-0---8-8-8----|
|---10-10-0--8--8--0---13-13-0---6-6-6----|

Chorus

 Hate-----To-----Say-----I-----Told-----You-----So
|-------------------------------------------------|
|-------------------------------------------------|
|-------------------------------------------------|
|-------------------------------------------------|
|-12-12-12-12-12-12-12-12-12-12-12-12-12-12-12-12-|
|-10-10-10-10-10-10-10-10-10-10-10-10-10-10-10-10-|

Alright!!

|-----------------------------------------| x1
|-----------------------------------------|
|-----------------------------------------|
|-----------------------------------------|	Riff 1 
|---12-12-0--10-10-0---15-15-0---8-8-8----|
|---10-10-0--8--8--0---13-13-0---6-6-6----|

Come on!!
|-----------------------------------------| x1
|-----------------------------------------|
|-----------------------------------------|
|-----------------------------------------|	Riff 1 
|---12-12-0--10-10-0---15-15-0---8-8-8----|
|---10-10-0--8--8--0---13-13-0---6-6-6----|

I-----Do------Believe------I------Told-----------You----------Sooooooooooo
|-------------------------------------------------------------------------|
|-------------------------------------------------------------------------|
|-------------------------------------------------------------------------|
|-------------------------------------------------------------------------|
|-12-12-12-12-12-12-12-12-12-12-12-12-12-12-12-12-12-12-12-12-12-12-12-12-|
|-10-10-10-10-10-10-10-10-10-10-10-10-10-10-10-10-10-10-10-10-10-10-10-10-|

Now it's all out and you know.



Verse 
[ Tab from: http://www.guitartabs.cc/tabs/h/hives/hate_to_say_i_told_you_so_tab_ver_18.html ]
|-----------------------------------------| x1
|-----------------------------------------|
|-----------------------------------------|
|-----------------------------------------|	Riff 1 
|---12-12-0--10-10-0---15-15-0---8-8-8----|
|---10-10-0--8--8--0---13-13-0---6-6-6----|


Chorus

 Hate-----To-----Say-----I-----Told-----You-----So
|-------------------------------------------------|
|-------------------------------------------------|
|-------------------------------------------------|
|-------------------------------------------------|
|-12-12-12-12-12-12-12-12-12-12-12-12-12-12-12-12-|
|-10-10-10-10-10-10-10-10-10-10-10-10-10-10-10-10-|

Alright!!

|-----------------------------------------| x1
|-----------------------------------------|
|-----------------------------------------|
|-----------------------------------------|	Riff 1 
|---12-12-0--10-10-0---15-15-0---8-8-8----|
|---10-10-0--8--8--0---13-13-0---6-6-6----|

Come on!!

|-----------------------------------------| x1
|-----------------------------------------|
|-----------------------------------------|
|-----------------------------------------|	Riff 1 
|---12-12-0--10-10-0---15-15-0---8-8-8----|
|---10-10-0--8--8--0---13-13-0---6-6-6----|

I-----Do------Believe------I------Told-----------You----------Sooooooooooo
|-------------------------------------------------------------------------|
|-------------------------------------------------------------------------|
|-------------------------------------------------------------------------|
|-------------------------------------------------------------------------|
|-12-12-12-12-12-12-12-12-12-12-12-12-12-12-12-12-12-12-12-12-12-12-12-12-|
|-10-10-10-10-10-10-10-10-10-10-10-10-10-10-10-10-10-10-10-10-10-10-10-10-|

Verse But Only Bass Plays For Half Of It.
Bass Solo (For Guitar)

|------------------------------------------------|x8
|------------------------------------------------|
|------------------------------------------------|
|------------------------------------------------|	Riff 2 
|------------------------------------------------|
|--10-10-10-0--8-8-8-0--13-13-13-0---6-6-6-------|





Pre Verse

|----------------|
|----------------|
|----------------|
|----------------|
|-12-12-12-12-12-|
|-10-10-10-10-10-|


Verse/Outro Riff 1 

Come on!!

|-----------------------------------------| x10
|-----------------------------------------|
|-----------------------------------------|
|-----------------------------------------|	Riff 1 
|---12-12-0--10-10-0---15-15-0---8-8-8----|
|---10-10-0--8--8--0---13-13-0---6-6-6----|
Comments