Hives - Hate To Say I Told You So Chords & Tabs

 

Hate To Say I Told You So Chords & Tabs

Hives Chords & Tabs

Version: 5 Type: Bass Tab 0 ratings
1 star 2 stars 3 stars 4 stars 5 stars
comments

Hate To Say I Told You So Bass Tab

By Paddy and Si the pick stealer (gobbles49@hotmail.com)

The intro is the same as the cool bass solo near the end of the song. Here we go- Dr.Dangerous is the best bassist

Intro

G-----------------------------------------------
D-----------------------------------------------X8
A--5-5-0--3-3-3-0--8-8-8-0----------------------
E--------------------------6-6-6----------------
[ Tab from: http://www.guitartabs.cc/tabs/h/hives/hate_to_say_i_told_you_so_btab_ver_5.html ]
IT IS ALSO THE BASS SOLO

Semi-heavy Distortion

G-----------------------------------------------
D-----------------------------------------------X8
A--5-5-0--3-3-3-0--8-8-8-0----------------------
E--------------------------6-6-6----------------

Then theres a gap for about 3 seconds

Then it carries on with the same riff.

The whole song is the same riff but 
you'll have to listen carefully for rythym.
Comments