Hives - Hate To Say I Told You So Chords & Tabs

 

Hate To Say I Told You So Chords & Tabs

Hives Chords & Tabs

Version: 11 Type: Bass Tab 0 ratings
1 star 2 stars 3 stars 4 stars 5 stars
comments

Hate To Say I Told You So Bass Tab

author:lee downs
email:lee13@:limpbizkitfan.com
song title:hate to say i told u so
artist:the hives

first of all the guitar does his bit twice and the on that second time

                  reapeat as follows

G:---------------------------------------------------------|
D:---------------------------------------------------------|
A:-----then along with drums-------------------------------|
E:--10------------------------10x14------------------------|


now to the intresting part

G:--------------------------------------------------------|
D:--------------------------------------------------------|
A:--------------------8-8-8-0------------x3---------------|
E:-10-10-10-0-8 8 8-0---------6-6-6-----------------------|

               then the drums for 16 seconds
                          then

G:--------------------------------------------------------|
D:--------------------------------------------------------|
A:--------------------8-8-8-0------------x8---------------|
E:-10-10-10-0-8 8 8-0---------6-6-6-----------------------|

              then after just simply play


G:-----------------------------------|
D:-----------------------------------|
A:-----------------------------------|           thats right but if you want you can keep
E:----10-----------------------------|           reapeating that 10 in time with the drum

after that go back to the main rift


G:--------------------------------------------------------|
D:--------------------------------------------------------|
A:--------------------8-8-8-0------------x8---------------|
E:-10-10-10-0-8 8 8-0---------6-6-6-----------------------|


then again
[ Tab from: http://www.guitartabs.cc/tabs/h/hives/hate_to_say_i_told_you_so_btab_ver_11.html ]
G:-----------------------------------|
D:-----------------------------------|
A:-----------------------------------|      play with drums if wanted
E:----10-----------------------------|

then this again

G:--------------------------------------------------------|
D:--------------------------------------------------------|
A:--------------------8-8-8-0------------x2---------------|
E:-10-10-10-0-8 8 8-0---------6-6-6-----------------------|

then for the last time this

G:-----------------------------------|
D:-----------------------------------|
A:-----------------------------------|      play with drums if wanted
E:----10-----------------------------|

then drums solo

THEN THE BASS SOLO
                     NOW THIS IS PLAYED SLIGHTLY DIFFERENT TO THE MAIN RIFT HERE IT GOES


G:--------------------------------------------------------|
D:--------------------------------------------------------|
A:--------------------8-8-8-0------------x6---------------|  NOT MUCH OF A DIFERRENCE BUT IT MAKES
E:-10-10-10-0-8 8 8-0---------6-6-6--8--------------------|  IT SOUND THAT LITTLE BETTER


THAN


:-------------------------------------|
D:------------------------------------|
A:------------------------------------|
E:----10-10-10-10-10-10-10-10---------|


than a little guitar solo than as follows

G:--------------------------------------------------------|
D:--------------------------------------------------------|
A:--------------------8-8-8-0------------x8---------------|
E:-10-10-10-0-8 8 8-0---------6-6-6-----------------------|


and that is it  a great son and easy to play all in one

if there are any corrections or questions please e-mail
Comments