Hives - Die All Right Chords & Tabs

 

Die All Right Chords & Tabs

Hives Chords & Tabs

Version: 3 Type: Bass Tab 0 ratings
1 star 2 stars 3 stars 4 stars 5 stars
comments

Die All Right Bass Tab

   
Standard Tuning

/ = slide up

G|-------| Intro
D|-------|
A|-------|
E|-0-3-5-| x1

G|------------------| Verse
D|------------------|
A|------------------|
E|-0-3-5---33/77777-| x6

G|------------------| Bridge
D|------------------|
A|------------------|
E|-8888888877777777-| x1

G|------------------| Verse
D|------------------|
A|------------------|
E|-0-3-5---33/77777-| x4

G|--------------------------| Bridge
D|--------------------------|
A|--------------------------|
E|-888888887777777777777777-| x1

G|-------------------------------| Chorus
D|-------5-----------------------|
A|-777777-755555-----------------|
E|-----------------3333333355555-| x4

G|------------------| Verse
D|------------------|
A|------------------|
E|-0-3-5---33/77777-| x6

G|--------------------------| Bridge
D|--------------------------|
A|--------------------------|
E|-888888887777777777777777-| x1
[ Tab from: http://www.guitartabs.cc/tabs/h/hives/die_all_right_btab_ver_3.html ]
G|-------------------------------| Chorus
D|-------5-----------------------|
A|-777777-755555-----------------|
E|-----------------3333333355555-| x3

G|----------------------------------| Chorus 2
D|-------5--------------------------|
A|-777777-7-------------------------|
E|---------333333567777777777777777-| x1

G|-------| Intro
D|-------|
A|-------|
E|-0-3-5-| x1

G|----------------------------------------------------------| Breakdown
D|----------------------------------------------------------|
A|-7777777777777777----------------55555555555555543333(x8)-|
E|-----------------7777777777757578-------------------------| x1

G|-------| Intro
D|-------|
A|-------|
E|-0-3-5-| x1

G|----------------------------------| Bridge
D|----------------------------------|
A|----------------------------------|
E|-88888888888888887777777777777777-| x1

G|-------------------------------| Chorus
D|-------5-----------------------|
A|-777777-755555-----------------|
E|-----------------3333333355555-| x4

G|----|    G|----| Ending
D|----| or D|----|
A|-2r-|    A|----|
E|----|    E|-7r-|
Comments