Hives - Dead Quote Olympics Chords & Tabs

 

Dead Quote Olympics Chords & Tabs

Hives Chords & Tabs

Version: 1 Type: Tab 0 ratings
1 star 2 stars 3 stars 4 stars 5 stars
comments

Dead Quote Olympics Tab

Artist: The Hives
Song: Dead Quote Olympics
Album: Tyrannosaurus Hives

Tabbed by: Devlin Morton devlin_morton@hotmail.com

Chorus
e)----------------------------------------|
b)----------------------------------------|
g)---------------------7-7-7-7-7-7-7-7----|
d)-----7-7-7-7-7-7-7-7-7-7-7-7-7-7-7-7----|
a)-----7-7-7-7-7-7-7-7-5-5-5-5-5-5-5-5----|
E)-----5-5-5-5-5-5-5-5--------------------|
[ Tab from: http://www.guitartabs.cc/tabs/h/hives/dead_quote_olympics_tab.html ]
Verse
e)--------------------------------------------------|
b)-----2--------------------------------------7-----|
g)-----2--------------------------------------7-----|
d)-----2--------------------------------------7-----|
a)--------------------------------------------------|
E)--------------------------------------------------|

Pre-Chorus
e)------------------------|
b)------------------------|
g)-----7--7------9--9-----|
d)-----7--7------9--9-----|
a)-----5--5------7--7-----|
E)------------------------|
This is a really easy song and I hope you enjoy it!
Comments