Hit The Lights - Save Your Breath Chords & Tabs

 

Save Your Breath Chords & Tabs

Hit The Lights Chords & Tabs

Version: 1 Type: Tab

Save Your Breath Tab


-----------------------------------------------------------------
			Save Your Breath - HIT THE LIGHTS
-----------------------------------------------------------------
Tabbed by Richey

Email = Richey02hg@hotmail.com

Tuning: Half Step Down


Verse 1 - Pretty sure just one guitar does this while the other just does the chords
listen for strokes
e|-------------------------------------------------|
B|-------------------------------------------------|
G|-----4-4-4-4----4-4-4-4-----4-4-4-4---4-4--------|
D|--2--x-x-x-x--4-x-x-x-x--2--x-x-x-x---4-4--4-4---|
A|--2--2-2-2-2--4-2-2-2-2--2--2-2-2-2---2-2--4-4---|
E|--0-----------2----------0-----------------2-2---|

Little prechorus - Listen for strokes
"Its all the same..."
e|--------------------------------------------------------|
B|--------------------------------------------------------|
G|----------------------------------------------4-4-4-4---|
D|--6---2---4------------6----2----4----------2-x-x-x-x---|
A|--6---2---4------------6----2----4----------2-2-2-2-2---|
E|--4---0---2------------4----0----2----------0-----------|


Chorus - Guitar 1 - figure out strumming
e|---------------------------------------------------|
B|---------------------------------------------------|
G|-------4----------4--------------------------------|
D|---6---4------2---4-----4---6----2-----------------|
A|---6---2------2---2-----4---6----2-----------------|
E|---4----------0---------2---4----0-----------------|

Chorus - Guitar 2 - its tough to hear but I think is right
its timed with guitar 1
e|----------------------------------------------------|
B|----------------------------------------------------|
G|--4-4-4-4-3-3-4-4/6-6/8-8-8-8-8-6-6-6-6-11-9-8-6-4--|
D|--x-x-x-x-x-x-x-x-x-x-x-x-x-x-x-x-x-x-x-x--x-x-x-x--|
A|--2-2-2-2-1-1-2-2/4-4/6-6-6-6-6-4-4-4-4-9--7-6-4-2--|
E|----------------------------------------------------|

Chorus - Part 2 - GUitar 1
e|-------------------------------------------------|
B|-------------------------------------------------|
G|-------------------------------------------------|
D|--6--------2--------4--------2-------------------|
A|--6--------2--------4--------2-------------------|
E|--4--------0--------2--------0-------------------|

CHorus - Part 2 - Guitar 2
plays this a few times then goes to the power chords
e|----2h4p2--|-or play like this--------------------|
B|--5--------|-----7h9p7----------------------------|
G|-----------|---9----------------------------------|
D|-----------|--------------------------------------|
A|-----------|--------------------------------------|
E|-----------|--------------------------------------|

[ Tab from: http://www.guitartabs.cc/tabs/h/hit_the_lights/save_your_breath_tab.html ]
Verse 2 - play twice with each chord once, then pm the last 2 times
e|-------------------------------------------------|
B|-------------------------------------------------|
G|-----------------4-------------------------------|
D|-2----2--4--6----4---4---------------------------|
A|-2----2--4--6----2---4---------------------------|
E|-0----0--2--4--------2---------------------------|

Guitar 2's little fill during verse 2
e|-------------------------------------------------|
B|-------------------------------------------------|
G|--16-16-16-16-16---------------------------------|
D|---x--x--x--x--x---------------------------------|
A|--14-14-14-14-14---------------------------------|
E|-------------------------------------------------|

repeat chorus

bridge part 1 - guitar 1
e|-----------------------------------------------------|
B|-----------------3 times-----------------------------|
G|---------------------then----------------------------|
D|--2-2-2~--6~---4~---------2-2-2~--6-6-6-6-4-4-4-4----|
A|--2-2-2~--6~---4~---------2-2-2~--6-6-6-6-4-4-4-4----|
E|--0-0-0~--4~---2~---------0-0-0~--4-4-4-4-2-2-2-2----|
                                    pm.............
Bridge part 1 - guitar 2
e|--------0-----------------------------------------|
B|------4---4-------4------4------------------------|
G|----4-------4---4------3---3----------------------|
D|--2-----------6------4----------------------------|
A|--------------------------------------------------|
E|--------------------------------------------------|

Bridge part 2 - guitar 1
e|-------------------------------------------------|
B|-------------------------------------------------|
G|-------------------------------------------------|
D|--6-6-6-6-----4-4-4-4-----2-2-2-2-----2-2-2-2----|
A|--6-6-6-6-----4-4-4-4-----2-2-2-2-----2-2-2-2----|
E|--4-4-4-4-----2-2-2-2-----0-0-0-0-----0-0-0-0----|

Bridge part 2 - guitar 2 - you'll hear when it switches to this
then it switches to the chords like guitar 1
e|-0-------0--------------------------------------------|
B|---4---4---4---4--------------------------------------|
G|-----4-------4----------------------------------------|
D|------------------------------------------------------|
A|------------------------------------------------------|
E|------------------------------------------------------|

then it just does an acoustic guitar and electric guitar combo of chorus
then just repeat chorus and ur done

alright there you go, this is not done to exact strumming you have to listen for it
if you think something should be changed let me know
also, im not sure 100% about the timing or accuracy of all the octaves in the chorus for gtr 2
honestly anything will sound decent if you just stick to the key of B or E major