Hiss - Back On The Radio Chords & Tabs

 

Back On The Radio Chords & Tabs

Hiss Chords & Tabs

Version: 1 Type: Tab 0 ratings
1 star 2 stars 3 stars 4 stars 5 stars
comments

Back On The Radio Tab

   
Tuning:  E a d g b E

ill work on the solo later
[ Tab from: http://www.guitartabs.cc/tabs/h/hiss/back_on_the_radio_tab.html ]
Riff 1
e--------------------------------------------|l
b--------------------------------------------|l
g--------------------------------------------|l
d---4-----7---------------4------------------|l
a---2-----5----5---4-----2-------------------|l
E----------------3---2------------------l----|   x2
Riff 2
e---------------------------------------------|I
b---------------------------------------------|I
g----9b----7---------------7h9----------------|I
d----------------9----7h9---------------------|I
a---------------------------------------------|I
E----------------------------------------l----|   x5

Riff 3
e------------------|l
b------------------|l
g----9b-7----------|l
d----------9-------|l
a------------------|l
E------------------|l
Comments