Hirsh Alan - Music Box Chords & Tabs

 

Music Box Chords & Tabs

Hirsh Alan Chords & Tabs

Version: 1 Type: Tab 0 ratings
1 star 2 stars 3 stars 4 stars 5 stars
comments

Music Box Tab

-----------------------------3--------2---2----3---3-----
--0---0----1---1----3--------0--------3---3----0---0-----
--0---0----2---2----0-------------------------------------
----0---0----0---0----0---0----0---0----0---0----0---0---
---------------------------------------------------------
---------------------------------------------------------



--0-----------------------3----------------2-----------------
--1-------1------0---0----0-------1---1----1-------0---0-----
----------2------0---0------------2---2------------0---0-----
----0-0-----0-0----0---0----0--0----0---0----0--0----0---0---
-------------------------------------------------------------
-------------------------------------------------------------



-0------2---2----3-------0---0-----0---0---2------1----------
-1------1---1----0-------1---1-----2---2---3------0----------
-------------------0-0-----0---0-----0---0---0-0----0--0-----
---0-0----0---0----------------------------------------------
-------------------------------------------------------------
-------------------------------------------------------------


[ Tab from: http://www.guitartabs.cc/tabs/h/hirsh_alan/music_box_tab.html ]
-0---0------------------------------------------------------
-1---1-------------------------------------------------------
---0---0-----------------------------------------------------
-------------------------------------------------------------
-------------------------------------------------------------
--------------------------------------------------------------



----------------------------------------------------------
-----------------------------------------------------------
-----------------------------------------------------------
-------------------------------------------------------------
-------------------------------------------------------------
--------------------------------------------------------------




--------3-----2---2---3--3---0-------------------------------
-3------0-----3---3---0--0---1--------1-------0---0----------
-0------------------------------------2-------0---0----------
---0-0---0-0----0--0---0--0---0--0------0--0----0---0--------
-------------------------------------------------------------
-------------------------------------------------------------



-3---------------2-------------0------2---2----3-------------
-0------1---1----1-----0---0---1------1---1----0-------------
--------2---2----------0---0---------------------0--0--------
---0-0----0--0----0-0----0---0---0-0----0---0----------------
-------------------------------------------------------------
-------------------------------------------------------------
Comments