Hippos - Wasting My Life Chords & Tabs

 

Wasting My Life Chords & Tabs

Hippos Chords & Tabs

Version: 2 Type: Tab 0 ratings
1 star 2 stars 3 stars 4 stars 5 stars
comments

Wasting My Life Tab

"Wasting my life"
By The Hippos
From The album "Heads Will Roll"
Tabbed By Jeff ( Slick38925@aol.com)

Intro
e------------------------|
b------------------------|
g--5---------------------|
d--4----4--5-------------|
a--5----4--5-------------|
e-------2--3-------------|
During Intro, guitar two plays the D7 chord on the off beats

Verse
Just keep playing the D7 Chord on the off beats
[ Tab from: http://www.guitartabs.cc/tabs/h/hippos/wasting_my_life_tab_ver_2.html ]
Bridge (Some people say were not the same)
e------------------------|
b------------------------|
g-4--9--4----------------|
d-4--9--4--5--7----------|
a-2--7--2--5--7----------|
e----------3--5----------|

chorus
e-------------------------|
b-------------------------|
g--7----------------------|
d--7--4--5----------------|
a--5--4--5----------------|
e-----2--3----------------|

Listen to the song for all of the rythms
Comments