Hippos - Something Chords & Tabs

 

Something Chords & Tabs

Hippos Chords & Tabs

Version: 2 Type: Tab 0 ratings
1 star 2 stars 3 stars 4 stars 5 stars
comments

Something Tab

   
SOMETHING - The Hippos

By: Emilie: Datsme243@aol.com

intro:
     in power chords(distortion)
     a  f#  d   a
E :------------------|                E :------------| 
B :------------------|                B :------------| 
G :---------77-------|                G :---------7--| 
D :--7--44--77--77---| x3             D :--7--44--7--| 
A :--7--44--55--77---|                A :--7--44--5--| 
E :--5--22------55---|                E :--5--22-----| 
[ Tab from: http://www.guitartabs.cc/tabs/h/hippos/something_tab_ver_2.html ]
verse:
E:-------------------------------------------------| 
B:-------------------------------------------------| 
G:--11--9--6--11--13--14--11--9--6--11---11--9--6--| 
D:--11--9--6--11--13--14--11--9--6--11---11--9--6--| 
A:---9--7--4---9--11--12---9--7--4---9----9--7--4--| 
E:-------------------------------------------------| 

chorus: same as intro

riff before solo:
E:-----------------|              E:-----------------|              
B:-----------------|              B:-----------------| 
G:-----44------22--|              G:-----44-4/9------|
D:--4--44--22--22--| x3           D:--4--44-4/9------|
A:--4--22--22--00--|              A:--4--22-4/7------|
E:--2------00------|              E:--2--------------|

another riff before chorus:
e          f#
no i can't believe it
e                    f# 
the things that they say
e          f#
no i can't believe it
e
will i ever make it they say no way

then repeat chorus

outro:
E:------------------|
B:------------------|
G:------------------|
D:--5-44-33-22-2-7/-|
A:--5-44-33-22-2-7/-|
E:--3-22-11-00-0-5/-|
Comments