Hinder - Lips Of An Angel Chords & Tabs

 

Lips Of An Angel Chords & Tabs

Hinder Chords & Tabs

Version: 1 Type: Tab

Lips Of An Angel Tab

Drop D Tuning
                               Hinder
                          Lips Of An Angel
 e---------------------------------------------------------------------------|
 b------------------------3--------------------------------------------------|
 g----7----------------7\2---------------------------------------------------|
 d---7-7----10-10-----5\0----------------------------------------------------|
 a--7---7--9--9--9---5\0-----------------------------------------------------|
 D-7------9-------9-5\0------------------------------------------------------|
 Repeat Until 2nd Verse Then:
 e-2----x----x----x-|
 b-3----10---12---8-|
 g-2----9----11---7-|
 d-0----7----9----5-|
 a-0----7----9----5-|
 D-0----7----9----5-|
 Repeat 2x
 Chorus:
 e-x------------------------|
 b-x------------------------|
 g-x------------------------|
 d-0--7--10--5--0--7--10--5-|
 a-0--7--10--5--0--7--10--5-|
 d-0--7--10--5--0--7--10--5-|
[ Tab from: http://www.guitartabs.cc/tabs/h/hinder/lips_of_an_angel_tab.html ]