Hinder - Get Stoned Chords & Tabs

 

Get Stoned Chords & Tabs

Hinder Chords & Tabs

Version: 1 Type: Tab 0 ratings
1 star 2 stars 3 stars 4 stars 5 stars
comments

Get Stoned Tab

   
Tuning:DADGBE
Intro:
e|------------------------------------------------|
B|-11---11---10---10---12---12---13---14----------|
G|-12---12---12---12---12---12---12---12----------| 2x
D|----0----0----0----0----0----0----0-------------|
A|------------------------------------------------|
D|------------------------------------------------|

Guitar 1
e|------------------------------------------------|
B|------------------------------------------------|
G|-------------------------5--5-------------------| 2x
D|-5---5---8---8---3---3---3--3-------------------|
A|-5---5---8---8---3---3---3--3-------------------|
D|-5---5---8---8---3---3---3--3-------------------|

Guitar 2
e|---------------------------------------------------------------------------------|
B|-8-6---6-8-6-----8-6---11-10-8-6---8-6---6-8-6-----8-6---11-10-8-6---------------|
G|-----7-------7-------7-----------------7-------7-------7-----------7~~~~~~~~~~~~-|
D|---------------------------------------------------------------------------------|
A|---------------------------------------------------------------------------------|
D|---------------------------------------------------------------------------------|

Verse:
e|------------------------------------------------|
B|------------------------------------------------|
G|-------------------------5--5-------------------| 3x
D|-5---5---8---8---3---3---3--3-------------------|
A|-5---5---8---8---3---3---3--3-------------------|
D|-5---5---8---8---3---3---3--3-------------------|

Prechorus:
e|------------------------------------------------------------------------|
B|------------------------------------------------------------------------|
G|------------------------------------------------------------------------|
D|-1---1---3---3---5---5---5---5---1---1---3---3---0-0-0-0-0-0-0-0--------|
A|-1---1---3---3---5---5---5---5---1---1---3---3---0-0-0-0-0-0-0-0--------|
D|-1---1---3---3---5---5---5---5---1---1---3---3---0-0-0-0-0-0-0-0--------|

Chorus:
e|------------------------------------------------------------|
B|------------------------------------------------------------|
G|-------------------------5--5--------------------------5--5-| 2x
D|-5---5---8---8---3---3---3--3--5---5---8---8---3---3---3--3-|
A|-5---5---8---8---3---3---3--3--5---5---8---8---3---3---3--3-|
D|-5---5---8---8---3---3---3--3--5---5---8---8---3---3---3--3-|
[ Tab from: http://www.guitartabs.cc/tabs/h/hinder/get_stoned_tab.html ]
e|---------------------------------------------------------------|
B|---------------------------------------------------------------|
G|---------------------------------------------------------------|
D|-1-1-1-1-3-3-3-3-5-5-5-5-5-5-5-1-1-1-1-3-3-3-3-5-5-5-5-5-5-5-5-|
A|-1-1-1-1-3-3-3-3-5-5-5-5-5-5-5-1-1-1-1-3-3-3-3-5-5-5-5-5-5-5-5-|
D|-1-1-1-1-3-3-3-3-5-5-5-5-5-5-5-1-1-1-1-3-3-3-3-5-5-5-5-5-5-5-5-|

Solo 1:
e|-------------10----------------------10----10-13------|
B|----11-10-11----11-10-11----11-10-11----11-------8~~~~|
G|-10----------------------10---------------------------|
D|------------------------------------------------------|
A|------------------------------------------------------|
D|------------------------------------------------------|

Verse 2

Prechorus

Chorus

Solo 2:
e|--------10----10/11-11-10-10-11-18--------10----10/11-11-10-10-11-10--|
B|-----11----11--------------------------11----11-----------------------|
G|--10--------------------------------10--------------------------------|
D|----------------------------------------------------------------------|
A|----------------------------------------------------------------------|
D|----------------------------------------------------------------------|

e|-15-----13-----15p13--------------------------------------------------|
B|---------------------15p13--------------------------------------------|
G|---------------------------15-----17-17b-17b-17b-17b------------------|
D|-----------------------------------------------------20b~~~~~~~~~~~~~-|
A|----------------------------------------------------------------------|
D|----------------------------------------------------------------------|

Bridge:
e|------------------------------------------------------------------------|
B|-11---11---10---10---12---12---13---14---11---11---10---10---12---12~~~-|
G|-12---12---12---12---12---12---12---12---12---12---12---12---12---12~~~-| 
D|----0----0----0----0----0----0----0----0----0----0----0----0----0-------|
A|------------------------------------------------------------------------|
D|------------------------------------------------------------------------|

Chorus

Ending:
e|---------------------------------------------------------------|
B|---------------------------------------------------------------|
G|---------------------------------------------------------------|
D|-1-1-1-1-3-3-3-3-5-5-5-5-5-5-5-1-1-1-1-3-3-3-3-5-5-5-5-5-5-5-5-|
A|-1-1-1-1-3-3-3-3-5-5-5-5-5-5-5-1-1-1-1-3-3-3-3-5-5-5-5-5-5-5-5-|
D|-1-1-1-1-3-3-3-3-5-5-5-5-5-5-5-1-1-1-1-3-3-3-3-5-5-5-5-5-5-5-5-|

e|---------------------------------------------------------------|
B|---------------------------------------------------------------|
G|---------------------------------------------------------------|
D|-1-1-1-1-3-3-3-3-5-5-5-5-5-5-5-1-1-1-1---3---3~~~~~~~~~~~~~~~~-|
A|-1-1-1-1-3-3-3-3-5-5-5-5-5-5-5-1-1-1-1---3---3~~~~~~~~~~~~~~~~-|
D|-1-1-1-1-3-3-3-3-5-5-5-5-5-5-5-1-1-1-1---3---3~~~~~~~~~~~~~~~~-|

tabbed by Jon Sumner
Comments