Himsa - When Midnight Breaks Chords & Tabs

 

When Midnight Breaks Chords & Tabs

Himsa Chords & Tabs

Version: 1 Type: Tab 0 ratings
1 star 2 stars 3 stars 4 stars 5 stars
comments

When Midnight Breaks Tab

   
#############################################
##  Tabber: Kris Schleiermacher            ##
##          foreversilent004@hotmail.com   ##
##          AIM: ForeverSilent004          ##
#############################################


Artist: Himsa
Song  : "When Midnight Breaks"
Album : Courting Tragedy and Disaster (2003 - Prosthetic Records) 

Tuning: All guitars are in dropped-C tuning
        (low to high: C G C F A D).

pm.... = palm mute
/ = slide up
\ = slide down
h = hammer on
p = pull off
x = muted
* = harmonic
~ = vibrato


INTRO (0:00) Guitar 1
D|----------------------------------------|
A|----------------------------------------|
F|----------------------------------------|
C|---------------------50-5-5-0-70-7-7-70-|
G|------8-7-8-10-8-7h8-50-5-5-0-70-7-7-70-|
C|--0-0--0-0-0--0-0----50-5-5-0-70-7-7-70-| x4
pm  . .  . . .  . .     .     .  .     .
          
            
Guitar 2
D|----------------------------------------|
A|----------------------------------------|
F|----------------------------------------|
C|------7-5-7-8-7-5h7--50-5-5-0-70-7-7-70-|
G|---------------------50-5-5-0-70-7-7-70-|
C|--0-0--0-0-0-0-0-----50-5-5-0-70-7-7-70-| x4
pm . .  . . .  . .     .     .  .     .


Both Guitars (0:22) 
D|--------------------|    |---4th time----------------------|
A|--------------------|    |----------------Guitar 2--7-8-10-|
F|--------------------|    |----------------Guitar 1--7-9-10-|
C|-0-0-0-00-0-0-00000-|    |-0-0-0-00-0-0--------------------|
G|-0-0-0-00-0-0-00000-|    |-0-0-0-00-0-0--------------------|
C|-0-0-0-00-0-0-00000-| x3 |-0-0-0-00-0-0--------------------|

Back to Intro (0:31)


Part 2 (0:49)
Guitar 1
D|----------------------------------------------------------------|
A|----------------------------------------------------------------|
F|-3-5------------3-5----7p5-----------3-5------------3-5-2222222-|
C|-1-3-0---3-2-3--1-5-0------8p7-------1-3-0---3-2-3--1-3-0000000-|
G|-1-3-0----------1-3-0----------10p8--1-3-0----------1-3-0000000-|
C|-----0--0-0-0-------0--------------------0--0-0-0---------------| x2
    pm    . . .                               . . .       .......

Guitar 2
D|----------------------------------------------------------------|
A|----------------------------------------------------------------|
F|-3-5------------3-5----7p5-----------3-5------------3-5-2222222-|
C|-1-3-0---7-5-7--1-5-0------8p7-------1-3-0---7-5-7--1-3-0000000-|
G|-1-3-0----------1-3-0----------10p8--1-3-0----------1-3-0000000-|
C|-----0--0-0-0-------0--------------------0--0-0-0---------------| x2
    pm    . . .                               . . .       .......


Back to Intro (1:11)



Part 3 (1:30)

Guitar 1
D|-----------------------------------------------------|
A|-----------------------------------------------------|
F|--------2h3--------2h7--------2h3--------7p5h7p5\3p2-|
C|-0-0-030----0-0-030----0-0-030----0-0-030------------|
G|-0-0-030----0-0-030----0-0-030----0-0-030------------|
C|-0-0-030----0-0-030----0-0-030----0-0-030------------| x2
pm   . ...      . ...      . ...      . ...

D|---------------------------------------------|
A|---------------------------------------------|
F|------2h3------2h7------2h3------7p5h7p5\3p2-|
C|-0-3-0----0-3-0----0-3-0----0-3-0------------|
G|-0-3-0----0-3-0----0-3-0----0-3-0------------|
C|-0-3-0----0-3-0----0-3-0----0-3-0------------| x4
[ Tab from: http://www.guitartabs.cc/tabs/h/himsa/when_midnight_breaks_tab.html ]
Guitar 2
D|----------------------------------------------------------|
A|----------------------------------------------------------|
F|----------------------------------------------------------|
C|-0-0-030-----0-0-030-----0-0-030-----0-0-030--------------|
G|-0-0-030-3h5-0-0-030-3h8-0-0-030-3h5-0-0-030-8-10p8\7-5-3-|
C|-0-0-030-----0-0-030-----0-0-030-----0-0-030--------------| x2
pm   . ...       . ...       . ...       . ...

D|--------------------------------------------------|
A|--------------------------------------------------|
F|--------------------------------------------------|
C|-0-3-0-----0-3-0-----0-3-0-----0-3-0--------------|
G|-0-3-0-3h5-0-3-0-3h8-0-3-0-3h5-0-3-0-8-10p8\7-5-3-|
C|-0-3-0-----0-3-0-----0-3-0-----0-3-0--------------| x4


Part 4 (1:59)

Guitar 1
D|-----------------------|
A|-----------------------|
F|-1010101010\9999\7\5---|
C|---------------------0-|
G|-8-8-8-8-8-\7777\5\3-0-|
C|---------------------0-| x4

Guitar 2
D|----------------------|
A|----------------------|
F|----------------------|
C|-777777777\5555\3\2-0-|
G|--------------------0-|
C|--------------------0-| x4



Part 5 (2:15)

Guitar 1
D|---------------------------------------------------|
A|---------------------------------------------------|
F|---------------------------------------------------|
C|-0---0---0-----0---0---0--------------solo---------|
G|-0---0---0-----0---0---0-let ring------------------|
C|-0---0---0-----0---0---0---------------------------|

Guitar 2
D|-----------------------------------|
A|-----------------------------------|
F|-----------------------------------|
C|-----------------------------------|
G|-3h5----3h5----3h5-----------------|
C|----0000---0000---0000-7p5\3h5p3p0-| x6
  pm  ....   ....   ....

(2:31)
D|-------------------------------------|
A|-------------------------------------|
F|-3---5-------------------------------|
C|-3---5-------------------------------|
G|-1---3--3h5----3h5----3h5----3h5-----|
C|-----------0000---0000---0000---0000-| x3
  pm         ....   ....   ....   ....

(2:47)
D|-----------------------------------------|    
A|-----------------------------------------|    
F|-3---5-----------------------------------|    
C|-3---5-----------------------------------|    
G|-1---3--3h5----3h5----3h5----7p5\3h5p3p0-|    
C|-----------0000---0000---0000------------| x2 
  pm         ....   ....   ....

D|---------------------------------------------------|
A|---------------------------------------------------|
F|-3---5---------------------------------------------|
C|-3---5-----------------------------------3---7--00-|
G|-1---3--3h5----3h5----3h5----7p5\3h5p3p0-3---7--00-|
C|-----------0000---0000---0000------------3---7--00-|
  pm         ....   ....   ....                   ..


Part 6 (3:11)

Guitar 1
D|----------------------|
A|----------------------|
F|----------------------|
C|--------lead----------|
G|----------------------|
C|----------------------|

Guitar 2
D|----------------------|
A|----------------------|
F|----------------------|
C|-0----7----3----5-----|
G|-0----7----3----5-----|
C|-0----7----3----5-----| x4


Part 7 (3:32)

Guitar 1
D|-----------------------------|
A|-----------------------------|
F|-----------------------------|
C|-----------------------7-5-3-|
G|-3h5----3h5----3h5-----7-5-3-|
C|----0000---0000---0000-7-5-3-| x4
  pm  ....   ....   .... . . .

D|-----------------------------|
A|-----------------------------|
F|-----------------------------|
C|-2h3----2h3----2h3-----7-5-3-|
G|-----------------------7-5-3-|
C|----0000---0000---0000-7-5-3-| x4
  pm  ....   ....   .... . . .

Guitar 2
D|-----------------------------|
A|-----------------------------|
F|-----------------------------|
C|-----------------------7-5-3-|
G|-3h5----3h5----3h5-----7-5-3-|
C|----0000---0000---0000-7-5-3-| x8
  pm  ....   ....   ....   . .


fin.
Comments