Himsa - Loveless And Goodbye Chords & Tabs

 

Loveless And Goodbye Chords & Tabs

Himsa Chords & Tabs

Version: 1 Type: Tab 0 ratings
1 star 2 stars 3 stars 4 stars 5 stars
comments

Loveless And Goodbye Tab

   
#############################################
##  Tabber: Kris Schleiermacher            ##
##          foreversilent004@hotmail.com   ##
##          AIM: ForeverSilent004          ##
#############################################


Artist: Himsa
Song  : "Loveless and Goodbye"
Album : Courting Tragedy and Disaster (2003 - Prosthetic Records) 

Tuning: All guitars are in dropped-C tuning
        (low to high: C G C F A D).

pm.... = palm mute
/ = slide up
\ = slide down
h = hammer on
p = pull off
x = muted
* = harmonic
~ = vibrato


INTRO (0:00) Guitar 1
D|---------------------------------------------------------------------|
A|---------------------------------------------------------------------|
F|---------------------------------------------------------------------|
C|---5h7---5h7---5h7---5h7---7p5------5h7---5h7---5h7---5h7---7p5-8p7--|
G|------------------------------8p7------------------------------------|
C|-00----00----00----00----00-------00----00----00----00----00---------|
pm ..    ..    ..    ..    ..       ..    ..    ..    ..    ..


D|----------------------------------------|
A|----------------------------------------|
F|----------------------------------------|
C|---7-5h7--7-5-7~~ -----7h9---7h9---7h9--|
G|----------------------------------------|
C|-00-----0------------00----00----00-----|
pm ..     .            ..    ..    ..


Guitar 2
D|----------------------------------------|
A|----------------------------------------|
F|----------------------------------------|
C|-00-------------------------------00----|
G|-00-------------------------------00----|
C|-00-------------------------------00----|


D|----------------------------------------|
A|----------------------------------------|
F|----------------------------------------|
C|-0-----------------------0-----0---0----|
G|-0-----------------------0-----0---0----|
C|-0-----------------------0-----0---0----|


Both Guitars (0:09)
D|---------------------------------------------------------------------|
A|---------------------------------------------------------------------|
F|---------------------------------------------------------------------|
C|---5h7---5h7---5h7---5h7---7p5------5h7---5h7---5h7---5h7---7p5-8p7--|
G|------------------------------8p7------------------------------------|
C|-00----00----00----00----00-------00----00----00----00----00---------|
pm ..    ..    ..    ..    ..       ..    ..    ..    ..    ..

D|------------------------------------------------|
A|------------------------------------------------|
F|---------------------------------------9-7-5-4~-|
C|---7-5h7--7-5-7~~ -----7h9---7h9---7h9----------|
G|------------------------------------------------|
C|-00-----0------------00----00----00-------------|   x3
pm ..     .            ..    ..    ..


Guitar 1 (0:37)
D|----------------------------------------|
A|----------------------------------------|   4th time
F|----------------------------------------|
C|-3------------------2222222222222222-3--|    |--/5--|
G|-3------------------0000000000000000-3--|    |--/5--|
C|-3-----------------------------------3--| x3 |--/5--|
                   pm ................

Guitar 2
D|------------------------------------------|
A|------------------------------------------|
F|------------------------------9----7---5--|
C|-7~~~ -10~ -12/13bend--7777777-7777-777---|
G|------------------------------------------|
C|------------------------------------------|
                   pm    ....... .... ...
[ Tab from: http://www.guitartabs.cc/tabs/h/himsa/loveless_and_goodbye_tab.html ]
D|------------------------------------------|
A|------------------------------------------|
F|------------------------------9----7---5--|
C|-7~~~ -10---9----------7777777-7777-777---|
G|------------------------------------------|
C|------------------------------------------|
                   pm    ....... .... ...

D|------------------------------------------|
A|------------------------------------------|
F|------------------------------9----7---5--|
C|-7~~~ -10~ -12/13bend--7777777-7777-777---|
G|------------------------------------------|
C|------------------------------------------|
                   pm    ....... .... ...

D|---------------------------|
A|---------------------------|
F|----------9---7------------|
C|-7---10-----------10---9---|
G|---------------------------|
C|---------------------------|



BACK TO INTRO (0:55)
                   


Verse (1:22) Both Guitars
D|--------------------------------------------------|
A|-----------------------------------------6p5-3h5--|
F|-----------------------------5-5h6--5-5h6---------|
C|-\\22222222222/5555555555--00-----00--------------|
G|-\\-----------------------------------------------|
C|-\\-----------------------------------------------|


SOLO (1:48)


Guitar 1
D|---------------------------|
A|---------------------------|
F|---------------------------|
C|---5-5h7---5-5h7---5h7-----|
G|---------------------------|
C|-00------00------00--------|  x8


D|---------------------------------|
A|---------------------------------|     4th time
F|---------------------------------|
C|-3------------------12----10---9-|      |--3--/5--|
G|-3-----------0000000--0000--000--|      |--3--/5--|
C|-3-------------------------------|  x3  |--3--/5--|
           pm  .......  ....  ...



Guitar 2 (lead)

working on it......



BRIDGE (2:25) Both Guitars
D|------------------------------------------|
A|------------------------------------------|
F|-5009007005007h9/10\9-500(10)009-5h7/9p7--|
C|------------------------------------------|
G|------------------------------------------|
C|------------------------------------------| x4
 pm .. .. .. ..          ..    ..


Guitar 1 (2:44)
D|----------------------|
A|----------------------|              last time
F|-------------------2--|
C|-3--33-3--33-3--33-2--|     |-3--33-3--33-3--33-5-555555555555--|
G|-3--33-3--33-3--33-0--|     |-3--33-3--33-3--33-5-555555555555--|
C|-3--33-3--33-3--33----| x3  |-3--33-3--33-3--33-5-555555555555--|
  pm  ..    ..    ..               ..    ..    ..   ............
 

Guitar 2
D|------------------------------------------|
A|---------------------7/9-10-10---12-13-10-|
F|------------------------------------------|
C|-7--10--12--10--9--7----------------------|  working on the rest....
G|------------------------------------------|
C|------------------------------------------|




BACK TO INTRO (3:02)


BACK TO VERSE (3:30)


OUTRO (4:10) Guitar 1
D|-----------------------------------------------|
A|-----------------------------------------------|
F|--------------------------------------------2--|
C|-3------5------3------5------3------5-------0--|
G|-3------5------3------5------3------5-------0--|
C|-3------5------3------5------3------5----------|


Guitar 2
D|--------------------------------------------------------------------|
A|-------5--3--------------5bend--3--------------5--3-----------------|
F|-2--5--------5--4--2--5------------5--4--2--5--------5--4--/5~~~~~ -|
C|--------------------------------------------------------------------|
G|--------------------------------------------------------------------|
C|--------------------------------------------------------------------|


fin.
Comments