Him - Your Sweet Six Six Six Chords & Tabs

 

Your Sweet Six Six Six Chords & Tabs

Him Chords & Tabs

Version: 1 Type: Tab 0 ratings
1 star 2 stars 3 stars 4 stars 5 stars
comments

Your Sweet Six Six Six Tab

   
#----------------------------------PLEASE NOTE----------------------------------#
# This file is the author's own work and represents their interpretation of the #
# song. You may only use this file for private study, scholarship, or research. #
#-------------------------------------------------------------------------------#

                               YOUR SWEET SIX SIX SIX
                                      by HIM
                    (From the Album Greatest Lovesongs Vol. 666)





Transcribed by Jouko Karvinen  
E-mail : jouko.karvinen@pp.inet.fi

. 	| palm mute
/ or \	| slide (up, down)
(7)	| Ghost note or extended note
*	| see comment

Notes:	| The palm-muting in RIFF 2 and 4 is optional. I'm not sure
	  do they (HIM) use it or not, but it clears the sound. Also, if
      	  you find the earlier mentioned riffs hard to play, you can
 	  add another guitar that plays the chords, like in RIFF 5.
	
TUNING E (E,A,D,G,H,E)


INTRO:
               | Three times    |                
|--------------|----------------|--------------|
|--------------|----------------|--------------|
|--------------|----------------|--------------|
|--------------|-5----4---------|-4-4-4-4-4-2--|
|-5-4-0--2-----|-5----4----2----|-2-2-2-2-2-0--|
|--------2-----|-----------2----|--------------|
                                    . . . .                                          

RIFF 1:

|------------------|------------------|-------------------------------------|
|------------------|------------------|-------------------------------------|
|------------------|------------------|-------------------------------------|
|------------------|-----7------7---7-|-------------------------------------|
|-5---5------5---5-|-5-5-5-5--5-5-5-5-|-----4------4---4------4------4---4--|
|-3-3-3-3--3-3-3-3-|------------------|-2-2-2-2--2-2-2-2--2-2-2-2--2-2-2-2--|
    .   .  .   .     . .   .  .   .     . .   .  .   .    . .   .  .   .    

|------------------|------------------|------------------------------------|
|------------------|------------------|------------------------------------|
|------------------|------------------|------------------------------------|
|------------------|-----4------4---4-|------------------------------------|
|-----5------5---5-|-2-2-2-2--2-2-2-2-|-----4------4---4------4----5-4-0-5-|
|-3-3-3-3--3-3-3-3-|------------------|-2-2-2-2--2-2-2-2--2-2-2-2--------3-|
  . .   .  .   .     . .   .  .   .     . .   .  .   .    . .   .         

|--------------------|------------------|-------------------------------------|
|--------------------|------------------|-------------------------------------|
|--------------------|------------------|-------------------------------------|
|--------------------|-----7------7---7-|-------------------------------------|
|-(5)---5------5---5-|-5-5-5-5--5-5-5-5-|-----4------4---4------4------4---4--|
|-(3)-3-3-3--3-3-3-3-|------------------|-2-2-2-2--2-2-2-2--2-2-2-2--2-2-2-2--|
      .   .  .   .     . .   .  .   .     . .   .  .   .    . .   .  .   .    

|------------------|----------------|-------------------|
|------------------|----------------|-------------------|
|------------------|----------------|-------------------|
|------------------|-----4------4---|-4--------(4)-4--4-|
|-----5------5---5-|-2-2-2-2--2-2-2-|-4--------(4)-4--4-|
|-3-3-3-3--3-3-3-3-|----------------|-2--------(2)-2--2-|
  . .   .  .   .     . .   .  .   .     


RIFF 2:
[ Tab from: http://www.guitartabs.cc/tabs/h/him/your_sweet_six_six_six_tab.html ]
|--------------|--------------|--------------|--------------|
|--------------|--------------|--------------|--------------|
|--------------|--------------|--------------|--------------|
|-4----4---5-4-|-4----4---5-4-|-7----4---5-4-|-2---4---5-4--|
|-2--2---2-----|-2--2---2-----|-5--5---5-----|-0-0---0------|
|--------------|--------------|--------------|--------------|
     .   .          .   .          .   .         .   .                                                                              
|--------------|--------------|--------------|---------------|
|--------------|--------------|--------------|---------------|
|--------------|--------------|--------------|---------------|
|------4---5-4-|------4---5-4-|------4---5-4-|-2---4---------|
|-5------------|-5------------|-5------------|-0-0---0-5-4-0-|
|-3--3---3-----|-3--3---3-----|-3--3---3-----|---------------|
     .   .          .   .          .   .               . . .

Repeat RIFF2

RIFF 3:

           | Three times    |                
|----------|----------------|--------------|
|----------|----------------|--------------|
|----------|----------------|--------------|
|----------|-5----4---------|-4-4-4-4-4-2--|
|--2---(2)-|-5----4----2----|-2-2-2-2-2-0--|
|--2---(2)-|-----------2----|--------------|
                       *        . . . .                                                    

Play RIFF 1
Play RIFF 2 2x
Play RIFF 3 ( After the "Tree times has been played  )
            ( three times, play it again ending in Eb(*))

Interlude....nothing to play...


RIFF 3.B

|---------------|
|---------------|
|---------------|
|-4------4------|
|-4------4------|
|-2------2------|

RIFF 4:

|-------------|-------------|-------------|-------------|
|-------------|-------------|-------------|-------------|
|-------------|-------------|-------------|-------------|
|-6---6---7-6-|-6---6---7-6-|-9---6---7-6-|-----6---7-6-|
|-4-4---4-----|-4-4---4-----|-7-7---7-----|-9-----------|
|-------------|-------------|-------------|-7-7---7-----|
    .   .         .   .         .   .         .   .

|-------------|---------------|
|-------------|---------------|
|-------------|---------------|
|-----6---7-6-|-----6---7-6---|
|-7-----------|-9-----------7-|
|-5-5---5-----|-7-7---7-------|
    .   .         .   . . . .           

Repeat RIFF 4

RIFF 5:

|-----4---5-4-|-----4---5-4-|--------------|-----4----5-4-|-----4---5-4-|
|-------------|-------------|-----9---10-9-|--------------|-------------|
|-6-6---6-----|-6-6---6-----|/9-9---9------|-4-4---4------|-2-2---2-----| GTR 1
|-------------|-------------|--------------|--------------|-------------|
|-------------|-------------|--------------|--------------|-------------|
|-------------|-------------|--------------|--------------|-------------|
|             |             |              |              |             |
|             |             |              |              |             |
|-------------|-------------|--------------|--------------|-------------|
|-------------|-------------|--------------|--------------|-------------|
|-------------|-------------|--------------|--------------|-------------| GTR 2
|-------------|-------------|-9------------|-4------------|-2-----------|
|-6-----------|---------(6)-|-7------------|-2------------|-0-----------|
|-4-----------|---------(4)-|--------------|--------------|-------------|


RIFF 5.a

|-----4---------|
|---------5-4---|
|-4-4---4-----4-| GTR 1
|---------------|
|---------------|
|---------------|
|               |
|               |
|---------------|
|---------------|
|---------------| GTR 2
|-4-------9-8---|
|-2-------7-6-9-|
|-------------7-|
          . . .

Repeat RIFF5 without RIFF 5.a


ENDING:

| 3. times                   |
|-----4----5-4-|-----4---5-4-|------------------------|
|--------------|-------------|------------------------|
|-4-4---4------|-2-2---2-----|------------------------| GTR 1
|--------------|-------------|----x\---------9-8---11-|
|--------------|-------------|----x\-------------9-11-|
|--------------|-------------|---------------------9--|
|              |             | pick-slide    . . .
|              |             |
|--------------|-------------|------------------------|
|--------------|-------------|------------------------|
|--------------|-------------|------------------------| GTR 2
|-4------------|-2-----------|---------------------11-|
|-2------------|-0-----------|-9---------(9)-7-6---11-|
|--------------|-------------|-7---------(7)-----7-9--|
                                             . . . 

Comments