Him - Your Sweet 666 Chords & Tabs

 

Your Sweet 666 Chords & Tabs

Him Chords & Tabs

Version: 4 Type: Tab 0 ratings
1 star 2 stars 3 stars 4 stars 5 stars
comments

Your Sweet 666 Tab

   
Band: HIM
Title: Your sweet 666
Album: Greatest Love Songs Vol.666
submitted by: Henry Valle 
Standard Tunning (E A D g b E)

every time you see this simbol (x#) for example A-4-(x8)  you have to play
                                                E-2-
A-4- 8 times.
E-2-

                         Intro

e|------------------------------------------------------|
b|------------------------------------------------------|
g|------------------------------------------------------|
D|------------------------------------------------------|
A|----54-0-2--------------------------------------------|
E|------------------------------------------------------|

e|------------------------------------------------------|
b|------------------------------------------------------|
g|4--4--4--4-4---------------4--4--4--4-4---------------|
D|4--4--4--4-4---5-5-5--4-4--4--4--4--4-4---5-5-5--4-4--|
A|2--2--2--2-2---5-5-5--4-4--2--2--2--2-2---5-5-5--4-4--|
E|---------------3-3-3--2-2-----------------3-3-3--2-2--|

e|------------------------------------------------------|
b|------------------------------------------------------|
g|4--4--4--4-4---------------4--4--4--4-4--4-4-4-4-4-2--|
D|4--4--4--4-4---5-5-5--4-4--4--4--4--4-4--4-4-4-4-4-0--|
A|2--2--2--2-2---5-5-5--4-4--2--2--2--2-2--2-2-2-2-2-0--|
E|---------------3-3-3--2-2-----------------------------|

                       Verse
e|------------------------------------------------------|
b|------------------------------------------------------|
g|------------------------------------------------------|
D|----------------7-(x8)--------------------------------|
A|5-(x8)----------5---------------4-(x16)---------------|
E|3-------------------------------2---------------------|

e|-------------------------------------------------------|
b|-------------------------------------------------------|
g|-------------------------------------------------------|
D|----------------7-(x8)---------------------------------|
A|5-(x8)----------5---------------4-(x16)------54---2----|
E|3-------------------------------2---------------0------|

e|-------------------------------------------------------|
b|-------------------------------------------------------|
g|-------------------------------------------------------|
D|----------------7-(x8)---------------------------------|
A|5-(x8)----------5---------------4-(x16)--4~4~~---------|
E|3-------------------------------2--------2~4~~---------|


                       Chorus


e|------------------------------------------------------
b|------------------------------------------------------
g|------------------------------------------------------
D|----4--5-4-------4--5-4------4-4---5------4-4---5-----
A|2-2--2-------2-2--2--------5-----4------------4-------
E|-------------------------------------5------------3---

 ------------------------------------------------------|
 ------------------------------------------------------|
 ------------------------------------------------------|
 ---4-4---5------4-4---5-----4-4---5-------------------|
 -------4------------4-----------4-------54-0-2--------|
 -----------3-----------3------------5-----------------|

e|------------------------------------------------------
b|------------------------------------------------------
g|------------------------------------------------------
D|----4--5-4-------4--5-4------4-4---5------4-4---5-----
A|2-2--2-------2-2--2--------5-----4------------4-------
E|-------------------------------------5------------3---

 ------------------------------------------------------|
 ------------------------------------------------------|
 ------------------------------------------------4~~~--|
 ---4-4---5------4-4---5-----4-4---5-------------4~~~--|
 -------4------------4-----------4-------54-0-2--2~~~--|
 -----------3-----------3------------5-----------------|


e|------------------------------------------------------|
b|------------------------------------------------------|
g|4--4--4--4-4---------------4--4--4--4-4---------------|
D|4--4--4--4-4---5-5-5--4-4--4--4--4--4-4---5-5-5--4-4--|
A|2--2--2--2-2---5-5-5--4-4--2--2--2--2-2---5-5-5--4-4--|
E|---------------3-3-3--2-2-----------------3-3-3--2-2--|
[ Tab from: http://www.guitartabs.cc/tabs/h/him/your_sweet_666_tab_ver_4.html ]
e|------------------------------------------------------|
b|------------------------------------------------------|
g|4--4--4--4-4---------------4--4--4--4-4--4-4-4-4-4-2--|
D|4--4--4--4-4---5-5-5--4-4--4--4--4--4-4--4-4-4-4-4-0--|
A|2--2--2--2-2---5-5-5--4-4--2--2--2--2-2--2-2-2-2-2-0--|
E|---------------3-3-3--2-2-----------------------------|

                       Verse
e|------------------------------------------------------|
b|------------------------------------------------------|
g|------------------------------------------------------|
D|----------------7-(x8)--------------------------------|
A|5-(x8)----------5---------------4-(x16)---------------|
E|3-------------------------------2---------------------|

e|-------------------------------------------------------|
b|-------------------------------------------------------|
g|-------------------------------------------------------|
D|----------------7-(x8)---------------------------------|
A|5-(x8)----------5---------------4-(x16)------54---2----|
E|3-------------------------------2---------------0------|

e|-------------------------------------------------------|
b|-------------------------------------------------------|
g|-------------------------------------------------------|
D|----------------7-(x8)---------------------------------|
A|5-(x8)----------5---------------4-(x16)--4~4~~---------|
E|3-------------------------------2--------2~4~~---------|


                         Chorus


e|------------------------------------------------------
b|------------------------------------------------------
g|------------------------------------------------------
D|----4--5-4-------4--5-4------4-4---5------4-4---5-----
A|2-2--2-------2-2--2--------5-----4------------4-------
E|-------------------------------------5------------3---

 ------------------------------------------------------|
 ------------------------------------------------------|
 ------------------------------------------------------|
 ---4-4---5------4-4---5-----4-4---5-------------------|
 -------4------------4-----------4-------54-0-2--------|
 -----------3-----------3------------5-----------------|

e|------------------------------------------------------
b|------------------------------------------------------
g|------------------------------------------------------
D|----4--5-4-------4--5-4------4-4---5------4-4---5-----
A|2-2--2-------2-2--2--------5-----4------------4-------
E|-------------------------------------5------------3---

 ------------------------------------------------------|
 ------------------------------------------------------|
 ------------------------------------------------4~~~--|
 ---4-4---5------4-4---5-----4-4---5-------------4~~~--|
 -------4------------4-----------4-------54-0-2--2~~~--|
 -----------3-----------3------------5-----------------|

e|------------------------------------------------------|
b|------------------------------------------------------|
g|4--4--4--4-4---------------4--4--4--4-4---------------|
D|4--4--4--4-4---5-5-5--4-4--4--4--4--4-4---5-5-5--4-4--|
A|2--2--2--2-2---5-5-5--4-4--2--2--2--2-2---5-5-5--4-4--|
E|---------------3-3-3--2-2-----------------3-3-3--2-2--|

e|------------------------------------------------------|
b|------------------------------------------------------|
g|4--4--4--4-4---------------4--4--4--4-4--4-4-4-4-4-2--|
D|4--4--4--4-4---5-5-5--4-4--4--4--4--4-4--4-4-4-4-4-0--|
A|2--2--2--2-2---5-5-5--4-4--2--2--2--2-2--2-2-2-2-2-0--|
E|---------------3-3-3--2-2-----------------------------|


e|------------------------------------------------------|
b|------------------------------------------------------|
g|------------------------------------------------------|
D|------------------------------------------------------|
A|-4-(x16)----------------------------------------------|
E|-2----------------------------------------------------|


                             Chorus 2
e|----------------------------------------------------------------------
b|----------------------------------------------------------------------
g|----------------------------------------------------------------------
D|----6-6/7-6-----6-6/7-6-----6-6/7-6-----6-6/7-6-----6-6/7-6--6--------
A|4-4---------7-----------7--------------------------------------76---4-
E|------------------------------------7-----------5----------5------7---

-----------------------------------------------------
-----------------------------------------------------
-----------------------------------------------------
-6-6/7-6-----6-6/7-6---------------------------------
-----------------------------------------------------
---------7-----------5-------------------------------

song ends with 
  ---------
  ---------
  ---------
  4-54---2-
  -----5---

good luck.........

I couldnt get done with this tab, so im gonna try to fix it later......
Comments