Him - Your Sweet 666 Chords & Tabs

 

Your Sweet 666 Chords & Tabs

Him Chords & Tabs

Version: 3 Type: Tab 0 ratings
1 star 2 stars 3 stars 4 stars 5 stars
comments

Your Sweet 666 Tab

   
#----------------------------------PLEASE NOTE---------------------------------#
#This file is the author's own work and represents their interpretation of the #
#song. You may only use this file for private study, scholarship, or research. #
#------------------------------------------------------------------------------##

                             HIM - YOUR SWEET 666
AUTHOR: Daniele Ripoli
        dnrr@email.it
        grazie a Raffy per l'aiuto


Gtr I (E A D G B E) - 'Guitar 1'

  Q=135
 4/4
  Gtr I
  H    E E E E   W          H    H      W
|--------------|----------|-----------|------|
|--------------|----------|-----------|------|
|--------------|----------|-----------|------|
|--------0-----|-4--------|-----------|-4----|
|----------4---|----------|-5----4----|-2----|
|------------5-|-7--------|-3----2----|------|


  H    H      W          H    H      H    H
|-----------|----------|-----------|------5----|
|-----------|----------|-----------|------5----|
|-----------|----------|-----------|------4----|
|-----------|-4--------|-----------|-4---------|
|-5----4----|-2--------|-5----4----|-2---------|
|-3----2----|----------|-3----2----|-----------|


  E E E E E E Q    E E E E E E E E   E E E E E E E E   E E E E E E E E
|----------------|-----------------|-----------------|-----------------|
|----------------|-----------------|-----------------|-----------------|
|-4-4-4-4-4-2----|-----------------|-----------------|-----------------|
|-4-4-4-4-4-2----|-----------------|-----------------|-----------------|
|-----------0----|-----------------|-5-5-5-5-5-5-5-5-|-----------------|
|-7-7-7-7-7------|-3-3-3-3-3-3-3-3-|-----------------|-2-2-2-2-2-2-2-2-|


  E E E E E E E E   E E E E E E E E   E E E E E E E E   E E E E E E E E
|-----------------|-----------------|-----------------|-----------------|
|-----------------|-----------------|-----------------|-----------------|
|-----------------|-----------------|-----------------|-----------------|
|-----------------|-----------------|-----------------|-----------------|
|-----------------|-----------------|-2-2-2-2-2-2-2-2-|-----------------|
|-2-2-2-2-2-2-2-2-|-3-3-3-3-3-3-3-3-|-----------------|-2-2-2-2-2-2-2-2-|


  E E E E E E E E   +E  E E E E E E E   E E E E E E E E   E E E E E E E E
|-----------------|-------------------|-----------------|-----------------|
|-----------------|-------------------|-----------------|-----------------|
|-----------------|-------------------|-----------------|-----------------|
|-----------------|-------------------|-----------------|-----------------|
|-------4-5-4-----|-------------------|-5-5-5-5-5-5-5-5-|-----------------|
|-2-2-2-------5-3-|-(3)-3-3-3-3-3-3-3-|-----------------|-2-2-2-2-2-2-2-2-|


  E E E E E E E E   E E E E E E E E   E E E E E E Q    W
|-----------------|-----------------|----------------|------|
|-----------------|-----------------|----------------|------|
|-----------------|-----------------|----------------|------|
|-----------------|-----------------|----------------|------|
|-----------------|-----------------|-2-2-2-2-2-2-2--|-4----|
|-2-2-2-2-2-2-2-2-|-3-3-3-3-3-3-3-3-|----------------|-2----|


               Q=135
  +W           Q  E E E E E E   Q  E E E E E E   Q  E E E E E E
|------------|----------------|----------------|----------------|
|------------|----------------|----------------|----------------|
|------------|----------0-0---|----------0-0---|----------------|
|------------|------4-------4-|------4-------4-|------4---5-5-4-|
|-(4)--------|-2--2---2-------|-2--2---2-------|-5--5---5-------|
|-(2)--------|----------------|----------------|----------------|


  Q  E E E E E E   Q  E E E E E E   Q  E E E E E E   Q  E E E E E E
|----------------|----------------|----------------|----------------|
|----------------|----------------|----------------|----------------|
|----------------|----------------|----------------|----------------|
|------4---5-5-4-|------4---5-5-4-|------4---5-5-4-|------4---5-5-4-|
|----------------|----------------|----------------|----------------|
|-5--5---5-------|-3--3---3-------|-3--3---3-------|-3--3---3-------|


  Q  E E E E E E   Q  E E E E E E   Q  E E E E E E   Q  E E E E E E
|----------------|----------------|----------------|----------------|
|----------------|----------------|----------------|----------------|
|----------------|----------------|----------0-0---|----------------|
|------4---------|----------5-5-4-|------4-------4-|------4---5-5-4-|
|----------5-4---|------9---------|-2--2---2-------|-5--5---5-------|
|-5--5---5-----5-|-7--7---7-------|----------------|----------------|


  Q  E E E E E E   Q  E E E E E E   Q  E E E E E E   Q  E E E E E E
|----------------|----------------|----------------|----------------|
|----------------|----------------|----------------|----------------|
|----------------|----------------|----------------|----------------|
|------4---5-5-4-|------4---5-5-4-|------4---5-5-4-|------4---5-5-4-|
|----------------|----------------|----------------|----------------|
|-5--5---5-------|-3--3---3-------|-3--3---3-------|-3--3---3-------|


  Q  E E E E E E   W          H    H      W
|----------------|----------|-----------|------|
|----------------|----------|-----------|------|
|----------------|----------|-----------|------|
|------4---------|-4--------|-----------|-4----|
|----------5-4---|----------|-5----4----|-2----|
|-5--5---5-----5-|-7--------|-3----2----|------|


  H    H      W          H    H      H    H
|-----------|----------|-----------|------5----|
|-----------|----------|-----------|------5----|
|-----------|----------|-----------|------4----|
|-----------|-4--------|-----------|-4---------|
|-5----4----|-2--------|-5----4----|-2---------|
|-3----2----|----------|-3----2----|-----------|


                   Q=135
  E E E E E E Q    E E E E E E E E   E E E E E E E E   E E E E E E E E
|----------------|-----------------|-----------------|-----------------|
|----------------|-----------------|-----------------|-----------------|
|-4-4-4-4-4-2----|-----------------|-----------------|-----------------|
|-4-4-4-4-4-2----|-----------------|-----------------|-----------------|
|-----------0----|-----------------|-5-5-5-5-5-5-5-5-|-----------------|
|-7-7-7-7-7------|-3-3-3-3-3-3-3-3-|-----------------|-2-2-2-2-2-2-2-2-|


  E E E E E E E E   E E E E E E E E   E E E E E E E E   E E E E E E E E
|-----------------|-----------------|-----------------|-----------------|
|-----------------|-----------------|-----------------|-----------------|
|-----------------|-----------------|-----------------|-----------------|
|-----------------|-----------------|-----------------|-----------------|
|-----------------|-----------------|-2-2-2-2-2-2-2-2-|-----------------|
|-2-2-2-2-2-2-2-2-|-3-3-3-3-3-3-3-3-|-----------------|-2-2-2-2-2-2-2-2-|


  E E E E E E E E   +E  E E E E E E E   E E E E E E E E   E E E E E E E E
|-----------------|-------------------|-----------------|-----------------|
|-----------------|-------------------|-----------------|-----------------|
|-----------------|-------------------|-----------------|-----------------|
|-----------------|-------------------|-----------------|-----------------|
|-------4-5-4-----|-------------------|-5-5-5-5-5-5-5-5-|-----------------|
|-2-2-2-------5-3-|-(3)-3-3-3-3-3-3-3-|-----------------|-2-2-2-2-2-2-2-2-|


  E E E E E E E E   E E E E E E E E   E E E E E E Q    W
|-----------------|-----------------|----------------|------|
|-----------------|-----------------|----------------|------|
|-----------------|-----------------|----------------|------|
|-----------------|-----------------|----------------|------|
|-----------------|-----------------|-2-2-2-2-2-2-2--|-4----|
|-2-2-2-2-2-2-2-2-|-3-3-3-3-3-3-3-3-|----------------|-2----|

[ Tab from: http://www.guitartabs.cc/tabs/h/him/your_sweet_666_tab_ver_3.html ]
               Q=135
  +W           Q  E E E E E E   Q  E E E E E E   Q  E E E E E E
|------------|----------------|----------------|----------------|
|------------|----------------|----------------|----------------|
|------------|----------0-0---|----------0-0---|----------------|
|------------|------4-------4-|------4-------4-|------4---5-5-4-|
|-(4)--------|-2--2---2-------|-2--2---2-------|-5--5---5-------|
|-(2)--------|----------------|----------------|----------------|


  Q  E E E E E E   Q  E E E E E E   Q  E E E E E E   Q  E E E E E E
|----------------|----------------|----------------|----------------|
|----------------|----------------|----------------|----------------|
|----------------|----------------|----------------|----------------|
|------4---5-5-4-|------4---5-5-4-|------4---5-5-4-|------4---5-5-4-|
|----------------|----------------|----------------|----------------|
|-5--5---5-------|-3--3---3-------|-3--3---3-------|-3--3---3-------|


  Q  E E E E E E   Q  E E E E E E   Q  E E E E E E   Q  E E E E E E
|----------------|----------------|----------------|----------------|
|----------------|----------------|----------------|----------------|
|----------------|----------------|----------0-0---|----------------|
|------4---------|----------5-5-4-|------4-------4-|------4---5-5-4-|
|----------5-4---|------9---------|-2--2---2-------|-5--5---5-------|
|-5--5---5-----5-|-7--7---7-------|----------------|----------------|


  Q  E E E E E E   Q  E E E E E E   Q  E E E E E E   Q  E E E E E E
|----------------|----------------|----------------|----------------|
|----------------|----------------|----------------|----------------|
|----------------|----------------|----------------|----------------|
|------4---5-5-4-|------4---5-5-4-|------4---5-5-4-|------4---5-5-4-|
|----------------|----------------|----------------|----------------|
|-5--5---5-------|-3--3---3-------|-3--3---3-------|-3--3---3-------|


  Q  E E E E E E   W          H    H      W
|----------------|----------|-----------|------|
|----------------|----------|-----------|------|
|----------------|----------|-----------|------|
|------4---------|-4--------|-----------|-4----|
|----------5-4---|----------|-5----4----|-2----|
|-5--5---5-----5-|-7--------|-3----2----|------|


  H    H      W          H    H      W
|-----------|----------|-----------|------|
|-----------|----------|-----------|------|
|-----------|----------|-----------|------|
|-----------|-4--------|-----------|-4----|
|-5----4----|-2--------|-5----4----|-2----|
|-3----2----|----------|-3----2----|------|


  H    H      W          W          W
|-----------|----------|----------|------|
|-----------|----------|----------|------|
|-----------|----------|----------|------|
|-----------|----------|----------|------|
|-5----4----|----------|----------|------|
|-3----2----|----------|----------|------|


  W          W          W          E E E E E E E E
|----------|----------|----------|-----------------|
|----------|----------|----------|-----------------|
|----------|----------|----------|-----------------|
|----------|----------|----------|-----------------|
|----------|----------|----------|-4-4-4-4-4-4-4-4-|
|----------|----------|----------|-2-2-2-2-2-2-2-2-|


  E E E E E E E E   Q  E E E E E E   Q  E E E E E E   Q  E E E E E E
|-----------------|----------------|----------------|----------------|
|-----------------|----------------|----------------|----------------|
|-----------------|----------2-2-1-|----------2-2-1-|------1---2-2-1-|
|-----------------|------6---------|------6---------|-2--2---2-------|
|-4-4-4-4-4-4-4-4-|-4--4---4-------|-4--4---4-------|----------------|
|-2-2-2-2-2-2-2-2-|----------------|----------------|----------------|


  Q  E E E E E E   Q  E E E E E E   Q  E E E E E E   Q  E E E E E E
|----------------|----------------|----------------|----------------|
|----------------|----------------|----------------|----------------|
|------1---2-2-1-|------1---2-2-1-|------1---------|----------2-2-1-|
|----------------|----------------|----------2-1---|------6---------|
|-2--2---2-------|-0--0---0-------|-2--2---2-----2-|-4--4---4-------|
|----------------|----------------|----------------|----------------|


  Q  E E E E E E   Q  E E E E E E   Q  E E E E E E   Q  E E E E E E
|----------------|----------------|----------------|----------------|
|----------------|----------------|----------------|----------------|
|----------2-2-1-|------1---2-2-1-|------1---2-2-1-|------1---2-2-1-|
|------6---------|-2--2---2-------|----------------|----------------|
|-4--4---4-------|----------------|-2--2---2-------|-0--0---0-------|
|----------------|----------------|----------------|----------------|


  Q  E E E E E E   Q  E E E E E E   Q  E E E E E E   Q  E E E E E E
|----------------|----------------|----------------|----------------|
|----------------|----------------|----------------|----------------|
|------1---------|----------2-2-1-|----------2-2-1-|------1---2-2-1-|
|----------2-1---|------6---------|------6---------|-2--2---2-------|
|-2--2---2-----2-|-4--4---4-------|-4--4---4-------|----------------|
|----------------|----------------|----------------|----------------|


  Q  E E E E E E   Q  E E E E E E   Q  E E E E E E   Q  E E E E E E
|----------------|----------------|----------------|----------------|
|----------------|----------------|----------------|----------------|
|------1---2-2-1-|------1---2-2-1-|------1---------|----------2-2-1-|
|----------------|----------------|----------2-1---|------6---------|
|-2--2---2-------|-0--0---0-------|-2--2---2-----2-|-4--4---4-------|
|----------------|----------------|----------------|----------------|


  Q  E E E E E E   Q  E E E E E E   Q  E E E E E E   Q  E E E E E E
|----------------|----------------|----------------|----------------|
|----------------|----------------|----------------|----------------|
|----------2-2-1-|------1---2-2-1-|------1---2-2-1-|------1---2-2-1-|
|------6---------|-2--2---2-------|----------------|----------------|
|-4--4---4-------|----------------|-2--2---2-------|-0--0---0-------|
|----------------|----------------|----------------|----------------|


  Q  E E E E E E   Q  E E E E E E   Q  E E E E E E   Q  E E E E E E
|----------------|----------------|----------------|----------------|
|----------------|----------------|----------------|----------------|
|------1---2-2-1-|------1---2-2-1-|------1---2-2-1-|------1---2-2-1-|
|----------------|----------------|----------------|----------------|
|-2--2---2-------|-0--0---0-------|-2--2---2-------|-0--0---0-------|
|----------------|----------------|----------------|----------------|


  Q  E E E E E E   Q  E E E E E E   Q  E E E E E E   W
|----------------|----------------|----------------|------*|
|----------------|----------------|----------------|------*|
|------1---2-2-1-|------1---2-2-1-|------1---------|-6----*|
|----------------|----------------|----------2-1---|-6----*|
|-2--2---2-------|-0--0---0-------|-2--2---2-----2-|-4----*|
|----------------|----------------|----------------|------*|


Duration Legend
---------------
W - whole; H - half; Q - quarter; E - 8th; S - 16th; T - 32nd; X - 64th; a - acciaccatura
+ - note tied to previous; . - note dotted; .. - note double dotted
Uncapitalized letters represent notes that are staccato (1/2 duration)
Irregular groupings are notated above the duration line
Duration letters will always appear directly above the note/fret number it represents the
duration for.  Duration letters with no fret number below them represent rests.  Multi-
bar rests are notated in the form Wxn, where n is the number of bars to rest for.  Low
melody durations appear below the staff

Tablature Legend
----------------
 h   - hammer-on
 p   - pull-off
 b   - bend
 pb  - pre-bend
 r   - bend release (if no number after the r, then release immediately)
 /\  - slide into or out of (from/to "nowhere")
 s   - legato slide
 S   - shift slide
  - natural harmonic
[n]  - artificial harmonic
n(n) - tapped harmonic
 ~   - vibrato
 tr  - trill
 T   - tap
 TP  - trem. picking
 PM  - palm muting
\n/  - tremolo bar dip; n = amount to dip
 \n  - tremolo bar down
 n/  - tremolo bar up
/n\  - tremolo bar inverted dip
 =   - hold bend; also acts as connecting device for hammers/pulls
 <>  - volume swell (louder/softer)
 x   - on rhythm slash represents muted slash
 o   - on rhythm slash represents single note slash

Misc Legend
-----------
 |  - bar
||  - double bar
||o - repeat start
o|| - repeat end
*|  - double bar (ending)
 :  - bar (freetime)
 $  - Segno
 &  - Coda
Comments