Him - Your Sweet 666 Chords & Tabs

 

Your Sweet 666 Chords & Tabs

Him Chords & Tabs

Version: 1 Type: Tab 0 ratings
1 star 2 stars 3 stars 4 stars 5 stars
comments

Your Sweet 666 Tab

   
Intro

        E    C   B   E    C   B   E    C   B   E    C           B
-----------|------------|------------|------------|----------------
-----------|------------|------------|------------|----------------
-----------|-5---4------|-5---4------|-5---4------|-5---5-5-5-5-4--
--------2--|-5---4---2--|-5---4---2--|-5---4---2--|-5---5-5-5-5-4--
--5-4-0-2--|-3---2---2--|-3---2---2--|-3---2---2--|-3---3-3-3-3-2--
--------0--|---------0--|---------0--|---------0--|----------------
                                                        * * * *   *

  1st & 2nd Piece
  F               A               E               E
----------------|---------------|---------------|---------------
----------------|---------------|---------------|---------------
----------------|---------------|---------------|---------------
--4---4-4--4-4--|-7---7-7--7-7--|-2---2-2--2-2--|-2---2-2--2-2--
--4---4-4--4-4--|-7---7-7--7-7--|-2---2-2--2-2--|-2---2-2--2-2--
--2---2-2--2-2--|-5---5-5--5-5--|-0---0-0--0-0--|-0---0-0--0-0--

  G               A               F               F
----------------|---------------|---------------|------------------
----------------|---------------|---------------|------------------
----------------|---------------|---------------|------------------
--5---5-5--5-5--|-7---7-7--7-7--|-4---4-4--4-4--|-4---4-4----------
--5---5-5--5-5--|-7---7-7--7-7--|-4---4-4--4-4--|-4---4-4---5-4-0--
--3---3-3--3-3--|-5---5-5--5-5--|-2---2-2--2-2--|-2---2-2----------

  F               A               E               E
----------------|---------------|---------------|---------------
----------------|---------------|---------------|---------------
----------------|---------------|---------------|---------------
--4---4-4--4-4--|-7---7-7--7-7--|-2---2-2--2-2--|-2---2-2--2-2--
--4---4-4--4-4--|-7---7-7--7-7--|-2---2-2--2-2--|-2---2-2--2-2--
--2---2-2--2-2--|-5---5-5--5-5--|-0---0-0--0-0--|-0---0-0--0-0--

  G               A               F      F   F
----------------|---------------|---------------
----------------|---------------|---------------
----------------|---------------|---------------
--5---5-5--5-5--|-7---7-7--7-7--|-4------4---4--
--5---5-5--5-5--|-7---7-7--7-7--|-4------4---4--
--3---3-3--3-3--|-5---5-5--5-5--|-2------2---2--

  Riff 1

  E                                   G                 D
------------------|-----------------|-----------------|-------------
------------------|-----------------|-----------------|-------------
------------------|-----------------|-----------------|-------------
--------4---5-----|-------4---5-----|-------4---5-----|-------4---5-
--2---2---2-------|-2---2---2-------|-5---5---5-------|-------------
------------------|-----------------|-----------------|-5---5---5---
            A.H.              A.H.              A.H.              A.H.

  A                 A                 A                 B#
------------------|-----------------|-----------------|------------
------------------|-----------------|-----------------|------------
------------------|-----------------|-----------------|------------
--------4---5-5-4-|-------4---5-5-4-|-------4---5-5-4-|-------4----
------------------|-----------------|-----------------|------------
--3---3---3-------|-3---3---3-------|-3---3---3-------|-5---5---5--

--------
--------
--------
--------
-5-4-0--
--------

  E                                   G                 D
------------------|-----------------|-----------------|-------------
------------------|-----------------|-----------------|-------------
------------------|-----------------|-----------------|-------------
--------4---5-----|-------4---5-----|-------4---5-----|-------4---5-
--2---2---2-------|-2---2---2-------|-5---5---5-------|-------------
------------------|-----------------|-----------------|-5---5---5---
            A.H.              A.H.              A.H.              A.H.
 
  A                 A                 A                 B#
------------------|-----------------|-----------------|------------
------------------|-----------------|-----------------|------------
------------------|-----------------|-----------------|------------
--------4---5-5-4-|-------4---5-5-4-|-------4---5-5-4-|-------4----
------------------|-----------------|-----------------|------------
--3---3---3-------|-3---3---3-------|-3---3---3-------|-5---5---5--
     

        E
-----------
-----------
-----------
--------2--
--5-4-0-2--
--------0--

[ Tab from: http://www.guitartabs.cc/tabs/h/him/your_sweet_666_tab.html ]
main
  
  C   B   E    C   B   E    C   B   E     C           B
-------------|------------|-------------|-------------------
-------------|------------|-------------|-------------------
--5---4------|-5---4------|-5---4-------|-5---5-5-5-5-4-----
--5---4---2--|-5---4---2--|-5---4---2---|-5---5-5-5-5-4-----
--3---2---2--|-3---2---2--|-3---2---2---|-3---3-3-3-3-2-----
----------0--|---------0--|---------0---|-------------------
                                              * * * *   *


main2

  C   B   E    C   B   E    C   B   E     C   B
-------------|------------|-------------|-------------------
-------------|------------|-------------|-------------------
--5---4------|-5---4------|-5---4-------|-5---4---------
--5---4---2--|-5---4---2--|-5---4---2---|-5---4---------
--3---2---2--|-3---2---2--|-3---2---2---|-3---2---------
----------0--|---------0--|---------0---|-------------------
                                                  *

  Pre-chorus 2

  B#      B#  B#
--------|--------
--------|--------
--------|--------
--6-----|-6---6--
--6-----|-6---6--
--4-----|-4---4--



riffs 2 & 3

  F#                                A                  E
------------------|---------------|------------------|--------------
------------------|---------------|------------------|--------------
------------------|---------------|------------------|--------------
--------6---7-----|-------6----7--|-------6----7-----|-------6---7--
--4---4---4-------|-4---4---4-----|-7---7---7--------|--------------
------------------|---------------|------------------|-7---7---7----
            A.H.               A.H.            A.H.              A.H.

  B                 C#
------------------|------------------
------------------|------------------
------------------|------------------
--------6---7-7-6-|-------6----------
------------------|-----------7-6----
--5---5---5-------|-7---7---7-----7--
  F#                                A                  E
------------------|---------------|------------------|--------------
------------------|---------------|------------------|--------------
------------------|---------------|------------------|--------------
--------6---7-----|-------6----7--|-------6----7-----|-------6---7--
--4---4---4-------|-4---4---4-----|-7---7---7--------|--------------
------------------|---------------|------------------|-7---7---7----
            A.H.               A.H.            A.H.              A.H.

  B                 C#
------------------|------------------
------------------|------------------
------------------|------------------
--------6---7-7-6-|-------6----------
------------------|-----------7-6----
--5---5---5-------|-7---7---7-----7--




  F#                                A                  E
------------------|---------------|------------------|--------------
------------------|---------------|------------------|--------------
--------6---7-----|-------6----7--|-------6----7-----|-------6---7--
--4---4---4-------|-4---4---4-----|-7---7---7--------|--------------
------------------|---------------|------------------|-7---7---7----
------------------|---------------|------------------|--------------
            A.H.               A.H.            A.H.              A.H.


  B                 C#
------------------|------------------
------------------|------------------
--------6---7-7-6-|-------6----------
------------------|-----------7-6----
--5---5---5-------|-7---7---7-----7--
------------------|------------------




  B                                 D                  A
------------------|---------------|------------------|--------------
------------------|---------------|------------------|--------------
--------6---7-----|-------6---7---|-------6----7-----|-------6---7--
--4---4---4-------|-4---4---4-----|-7---7---7--------|--------------
------------------|---------------|------------------|-7---7---7----
------------------|---------------|------------------|--------------
            A.H.              A.H.             A.H.              A.H.

  E                 F#                   E
------------------|--------------------|----------------
------------------|--------------------|----------------
--------6---7-7-6-|-------6---7-7-6----|-----6---7-7-6--
------------------|--------------------|----------------
--5---5---5-------|-7---7---7----------|-5---5---5------
------------------|--------------------|----------------


 F#                E                 F#
-----------------|-----------------|----------------
-----------------|-----------------|----------------
-------6---7-7-6-|-------6---7-7-6-|-------6---7-7-6
-----------------|-----------------|----------------
-7---7---7-------|-5---5---5-------|-7---7---7------
-----------------|-----------------|----------------


  E                   B                C#
-------------------|--------------------------
-------------------|--------------------------
--------6---7-7-6--|--------------------------
-------------------|--------6-----------------
--5---5---5--------|-------------7-6----------
-------------------|--5---5---5------7-9---\--




Structure:
  -Intro
  -1st piece
  -Riff 1
  -Main
  -2nd piece
  -Riff 1
  -Main2
  -Riffs 2 & 3
Comments